Oops, an error
Loading. Please wait.

The Church Of Hot Addiction bass

1,123 views 1 this week
1 commentread comment
1 2 3 4 5
x 3
add to favorites
×
Save as Personal and add changes to this tab that will be seen only by you. Learn more ›
×
You can save this tab as Personal to edit and correct it or add notes. All changes will be seen only by you. Learn more »
launch autoscroll
font size
0
reset
guitar tuner
backing track
0:00
0:00
edit
Autoscroll
slow
fast
+/-
esc
set tempo
stop
Author
Difficulty
Tabbed By : Jon Hannah
e-mail: Nolesrock@gmail.com

Tuning: Standard

~ = Let Ring

This is essentially the song. Add a few slides and you should be able to start a half 
cobra starship cover band. Oh, and since its my first time tabbing a song, no bitching 
I messed it up completely or something :)

G--------------------------------|
D--------------------------------|
A--------------------------------|
E--0-0---3-0-0---0--0---3-3-3-3-3|x11

G|---------------------------------------------------------------|
D|---------------------------------------------------------------|
A|7-7-7-7-7-7-7-7-3-3-3-3-3-3-3-3-----------------5-5-5-5-5-5-5-5|
E|--------------------------------3-3-3-3-3-3-3-3----------------|x2

G|---------------|
D|---------------|
A|7-7-3-3-----5-5|
E|--------3-3----|x5

G--------------------------------|
D--------------------------------|
A--------------------------------|
E--0-0---3-0-0---0--0---3-3-3-3-3|x9


G|---------------------------------------------------------------|
D|---------------------------------------------------------------|
A|7-7-7-7-7-7-7-7-3-3-3-3-3-3-3-3-----------------5-5-5-5-5-5-5-5|
E|--------------------------------3-3-3-3-3-3-3-3----------------|x4

G|---------------|
D|---------------|
A|7-7-3-3-----5-5|
E|--------3-3----|x5

G|---------------|
D|---------------|
A|7-7-7-7-7-7-7-7|
E|---------------|x1

G|-----------|
D|-----------|
A|7~-3~----5~|
E|------3~---|x1


G|---------------------------------------------------------------|
D|---------------------------------------------------------------|
A|7-7-7-7-7-7-7-7-3-3-3-3-3-3-3-3-----------------5-5-5-5-5-5-5-5|
E|--------------------------------3-3-3-3-3-3-3-3----------------|x5

G|---------------|
D|---------------|
A|7-7-3-3-----5-5|
E|--------3-3----| Till End

            
            
Suggest correction
Creating personal tab
Creating personal tab
You can edit any tab online and save it as your Personal.

You can edit, replace or remove any tab part or add personal notes – all changes will be seen only by you.

Personal tabs can be accessed anytime from any device, even offline.
Learn more »
Give kudos to tab author, rate the tab!
1 2 3 4 5
comments
print report bad tab
1 comment total.
0 reply
MusicMan24 1,144 Feb 04, 2009 04:17 PM

Perfect tab man, 5 stars

guest
You may want to rate the tab now too:
select rating
Wanna post a correction for this tab? Suggest correction