Oops, an error
Loading. Please wait.

King Of The Corner tab

82 views 1 this week
no commentswrite comment
1 2 3 4 5
3 more votes to show rating
add to favorites
×
Save as Personal and add changes to this tab that will be seen only by you. Learn more ›
×
You can save this tab as Personal to edit and correct it or add notes. All changes will be seen only by you. Learn more »
launch autoscroll
font size
0
reset
how to read this tab
guitar tuner
edit
Autoscroll
slow
fast
+/-
esc
set tempo
stop
[Intro]/[Verse]
     Em             Am                  C                C
e|-------------------|-----------------|-----------------|-------------------------|
B|-------------------|-----------------|-----------------|-------------------------|
G|--------8----------|-----10------8---|-----------8-----|---0-------0-------------|
D|-------------------|-10------10------|-------10-----10-|-13-12p--13-12p----------|
A|-----10----10------|-----------------|-8-11h-----------|-----------------13------|
E|--8--------------8-|-----------------|-----------------|-------------------------|

     Em             Am                  C                C
e|-------------------|-----------------|-----------------|-------------------------|
B|-------------------|-----------------|-----------------|-------------------------|
G|--------8----------|-----10------8---|-----------8-----|---0-------0-------------|
D|-------------------|-10------10------|-------10-----10-|-13-12p--13-12p----------|
A|-----10----10------|-----------------|-8-11h-----------|-----------------13------|
E|--8--------------8-|-----------------|-----------------|-------------------------|

     Em             Am                  C                C
e|-------------------|-----------------|-----------------|-------------------------|
B|-------------------|-----------------|-----------------|-------------------------|
G|--------8----------|-----10------8---|-----------8-----|---0-------0-------------|
D|-------------------|-10------10------|-------10-----10-|-13-12p--13-12p----------|
A|-----10----10------|-----------------|-8-11h-----------|-----------------13------|
E|--8--------------8-|-----------------|-----------------|-------------------------|

     Em             Am                  C                C
e|-------------------|-----------------|-----------------|-------------------------|
B|-------------------|-----------------|-----------------|-------------------------|
G|--------8----------|-----10------8---|-----------8-----|-------------------------|
D|-------------------|-10------10------|-------10-----10-|-12----------------------|
A|-----10----10------|-----------------|-8-11h-----------|-------------------------|
E|--8--------------8-|-----------------|-----------------|-------------------------|

   Em             Am                  C                C
e|-------------------|-----------------|-----------------|-------------------------|
B|-------------------|-----------------|-----------------|-------------------------|
G|--------8----------|-----10------8---|-----------8-----|---0-------0-------------|
D|-------------------|-10------10------|-------10-----10-|-13-12p--13-12p----------|
A|-----10----10------|-----------------|-8-11h-----------|-----------------13------|
E|--8--------------8-|-----------------|-----------------|-------------------------|

     Em             Am                  C                C
e|-------------------|-----------------|-----------------|-------------------------|
B|-------------------|-----------------|-----------------|-------------------------|
G|--------8----------|-----10------8---|-----------8-----|---0-------0-------------|
D|-------------------|-10------10------|-------10-----10-|-13-12p--13-12p----------|
A|-----10----10------|-----------------|-8-11h-----------|-----------------13------|
E|--8--------------8-|-----------------|-----------------|-------------------------|

     Em             Am                  C                C
e|-------------------|-----------------|-----------------|-------------------------|
B|-------------------|-----------------|-----------------|-------------------------|
G|--------8----------|-----10------8---|-----------8-----|---0-------0-------------|
D|-------------------|-10------10------|-------10-----10-|-13-12p--13-12p----------|
A|-----10----10------|-----------------|-8-11h-----------|-----------------13------|
E|--8--------------8-|-----------------|-----------------|-------------------------|

     Em             Am                  C                C
e|-------------------|-----------------|-----------------|-------------------------|
B|-------------------|-----------------|-----------------|-------------------------|
G|--------8----------|-----10------8---|-----------8-----|-------------------------|
D|-------------------|-10------10------|-------10-----10-|-12----------------------|
A|-----10----10------|-----------------|-8-11h-----------|-------------------------|
E|--8--------------8-|-----------------|-----------------|-------------------------|

   Em             Am                  C                C
e|-------------------|-----------------|-----------------|-------------------------|
B|-------------------|-----------------|-----------------|-------------------------|
G|--------8----------|-----10------8---|-----------8-----|---0-------0-------------|
D|-------------------|-10------10------|-------10-----10-|-13-12p--13-12p----------|
A|-----10----10------|-----------------|-8-11h-----------|-----------------13------|
E|--8--------------8-|-----------------|-----------------|-------------------------|

     Em             Am                  C                C
e|-------------------|-----------------|-----------------|-------------------------|
B|-------------------|-----------------|-----------------|-------------------------|
G|--------8.---------|-----10------8---|-----------8-----|---0-------0-------------|
D|-------------------|-10------10------|-------10-----10-|-13-12p--13-12p----------|
A|-----10------------|-----------------|-8-11h-----------|-----------------13------|
E|--8--------------8-|-----------------|-----------------|-------------------------|

     Em             Am                  C                C
e|-------------------|-----------------|-----------------|-------------------------|
B|-------------------|-----------------|-----------------|-------------------------|
G|--------8.---------|-----10------8---|-----------8-----|---0-------0-------------|
D|-------------------|-10------10------|-------10-----10-|-13-12p--13-12p----------|
A|-----10------------|-----------------|-8-11h-----------|-----------------13------|
E|--8--------------8-|-----------------|-----------------|-------------------------|

     Em             Am                  C                C
e|-------------------|-----------------|-----------------|-------------------------|
B|-------------------|-----------------|-----------------|-------------------------|
G|--------8.---------|-----10------8---|-----------8-----|-------------------------|
D|-------------------|-10------10------|-------10-----10-|-12----------------------|
A|-----10------------|-----------------|-8-11h-----------|-------------------------|
E|--8--------------8-|-----------------|-----------------|-------------------------|

   Em             Am                  C                C
e|-------------------|-----------------|-----------------|-------------------------|
B|-------------------|-----------------|-----------------|-------------------------|
G|--------8.---------|-----10.---------|-----------8.----|-------------------------|
D|-------------------|-10--------------|-------10--------|----12.------12.---------|
A|-----10------------|-----------------|-8-11h-----------|-------------------------|
E|--8--------------8-|-----------------|-----------------|-------------------------|


   Em             Am                  C                C
e|-------------------|-----------------|-----------------|-------------------------|
B|-------------------|-----------------|-----------------|-------------------------|
G|--------8.---------|-----10.---------|-----------8.----|-------------------------|
D|-------------------|-10--------------|-------10--------|----12.------12.---------|
A|-----10------------|-----------------|-8-11h-----------|-------------------------|
E|--8--------------8-|-----------------|-----------------|-------------------------|


   Em             Am                  C                C
e|-------------------|-----------------|-----------------|-------------------------|
B|-------------------|-----------------|-----------------|-------------------------|
G|--------8.---------|-----10.---------|-----------8.----|-------------------------|
D|-------------------|-10--------------|-------10--------|----12.------12.---------|
A|-----10------------|-----------------|-8-11h-----------|-------------------------|
E|--8--------------8-|-----------------|-----------------|-------------------------|


   Em             Am                  C                C
e|-------------------|-----------------|-----------------|-------------------------|
B|-------------------|-----------------|-----------------|-------------------------|
G|--------8.---------|-----10.---------|-----------8.----|-------------------------|
D|-------------------|-10--------------|-------10--------|----12.------12.---------|
A|-----10------------|-----------------|-8-11h-----------|-------------------------|
E|--8--------------8-|-----------------|-----------------|-------------------------|

[Chorus]
    Em                 Am               C                  C
e|--8---8---8---8---|---8.---8.-------|---8---8---8---8---|--8.-----8.------------------|
B|--8---8---8---8---|---9.---9.-------|---9---9---9---9---|--11.----11.-----------------|
G|--8---8---8---8---|---10.--10.------|---8---8---8---8---|--8.-----8.------------------|
D|--10--10--10--10--|---10.--10.------|---10--10--10--10--|--12.----12.-----------------|
A|--10--10--10--10--|---8.---8.-------|---11--11--11--11--|--13.----13.-----------------|
E|--8---8---8---8---|-----------------|-------------------|-----------------------------|

Em                      Am             C                  C
e|--8---8---8---8----|--8.---8.-------|---8---8---8---8--|---/8--8--8--8--8--8--8--8----|
B|--8---8---8---8----|--9.---9.-------|---9---9---9---9--|---/11-11-11-11-11-11-11-11---|
G|--8---8---8---8----|--10.--10.------|---8---8---8---8--|---/8--8--8--8--8--8--8--8----|
D|--10--10--10--10---|--10.--10.------|---10--10--10--10-|---/12-12-12-12-12-12-12-12---|
A|--10--10--10--10---|--8.---8.-------|---11--11--11--11-|---/13-13-13-13-13-13-13-13---|
E|--8---8---8---8----|----------------|------------------|------------------------------|

Em                      Am             C                  C
e|--8---8---8---8---|--8---8---8---8---|---8---8---8---8---|--8.-----------------------|
B|--8---8---8---8---|--9---9---9---8---|---9---9---9---9---|--11.----------------------|
G|--8---8---8---8---|--10--10--10--10--|---8---8---8---8---|--8.-----------------------|
D|--10--10--10--10--|--10--10--10--10--|---10--10--10--10--|--12.----------------------|
A|--10--10--10--10--|--8---8---8---8---|---11--11--11--11--|--13.----------------------|
E|--8---8---8---8---|------------------|-------------------|---------------------------|

Em                      Am             C                  C
e|--8---8---8---8---|--8---8---8---8---|---8---8---8---8---|--8-----------------------|
B|--8---8---8---8---|--9---9---9---8---|---9---9---9---9---|--11----------------------|
G|--8---8---8---8---|--10--10--10--10--|---8---8---8---8---|--8-----------------------|
D|--10--10--10--10--|--10--10--10--10--|---10--10--10--10--|--12----------------------|
A|--10--10--10--10--|--8---8---8---8---|---11--11--11--11--|--13----------------------|
E|--8---8---8---8---|------------------|-------------------|--------------------------|

[Verse]
     Em             Am                  C                C
e|-------------------|-----------------|-----------------|-------------------------|
B|-------------------|-----------------|-----------------|-------------------------|
G|--------8----------|-----10------8---|-----------8-----|---0-------0-------------|
D|-------------------|-10------10------|-------10-----10-|-13-12p--13-12p----------|
A|-----10----10------|-----------------|-8-11h-----------|-----------------13------|
E|--8--------------8-|-----------------|-----------------|-------------------------|

     Em             Am                  C                C
e|-------------------|-----------------|-----------------|-------------------------|
B|-------------------|-----------------|-----------------|-------------------------|
G|--------8----------|-----10------8---|-----------8-----|---0-------0-------------|
D|-------------------|-10------10------|-------10-----10-|-13-12p--13-12p----------|
A|-----10----10------|-----------------|-8-11h-----------|-----------------13------|
E|--8--------------8-|-----------------|-----------------|-------------------------|

     Em             Am                  C                C
e|-------------------|-----------------|-----------------|-------------------------|
B|-------------------|-----------------|-----------------|-------------------------|
G|--------8----------|-----10------8---|-----------8-----|---------8---------------|
D|-------------------|-10------10------|-------10-----10-|-----12------------------|
A|-----10----10------|-----------------|-8-11h-----------|-13----------------------|
E|--8--------------8-|-----------------|-----------------|-------------------------|

     Em             Am                  C                C
e|-------------------|-----------------|-----------------|-------------------------|
B|-------------------|-----------------|-----------------|-------------------------|
G|--------8----------|-----10------8---|-----------8-----|---------8---------------|
D|-------------------|-10------10------|-------10-----10-|-----12------------------|
A|-----10----10------|-----------------|-8-11h-----------|-13----------------------|
E|--8--------------8-|-----------------|-----------------|-------------------------|

     Em             Am                  C                C
e|-------------------|-----------------|-----------------|-------------------------|
B|-------------------|-----------------|-----------------|-------------------------|
G|--------8----------|-----10------8---|-----------8-----|---------8---------------|
D|-------------------|-10------10------|-------10-----10-|-----12------------------|
A|-----10----10------|-----------------|-8-11h-----------|-13----------------------|
E|--8--------------8-|-----------------|-----------------|-------------------------|

     Em             Am                  C                C
e|-------------------|-----------------|-----------------|-------------------------|
B|-------------------|-----------------|-----------------|-------------------------|
G|--------8----------|-----10------8---|-----------8-----|---8---------------------|
D|-------------------|-10------10------|-------10-----10-|---8---------------------|
A|-----10----10------|-----------------|-8-11h-----------|-------------------------|
E|--8--------------8-|-----------------|-----------------|-------------------------|

   Em             Am                  C                C
e|-------------------|-----------------|-----------------|-------------------------|
B|-------------------|-----------------|-----------------|-------------------------|
G|--------8.---------|-----10.---------|-----------8.----|----8.-------8.----------|
D|-------------------|-10--------------|-------10--------|----12.------12.---------|
A|-----10------------|-----------------|-8-11h-----------|-------------------------|
E|--8--------------8-|-----------------|-----------------|-------------------------|

   Em             Am                  C                C
e|-------------------|-----------------|-----------------|-------------------------|
B|-------------------|-----------------|-----------------|-------------------------|
G|--------8.---------|-----10.---------|-----------8.----|----8.-------8.----------|
D|-------------------|-10--------------|-------10--------|----12.------12.---------|
A|-----10------------|-----------------|-8-11h-----------|-------------------------|
E|--8--------------8-|-----------------|-----------------|-------------------------|

   Em             Am                  C                C
e|-------------------|-----------------|-----------------|-------------------------|
B|-------------------|-----------------|-----------------|-------------------------|
G|--------8.---------|-----10.---------|-----------8.----|----8.-------8.----------|
D|-------------------|-10--------------|-------10--------|----12.------12.---------|
A|-----10------------|-----------------|-8-11h-----------|-------------------------|
E|--8--------------8-|-----------------|-----------------|-------------------------|


   Em             Am                  C                C
e|-------------------|-----------------|-----------------|-------------------------|
B|-------------------|-----------------|-----------------|-------------------------|
G|--------8.---------|-----10.---------|-----------8.----|----8.-------8.----------|
D|-------------------|-10--------------|-------10--------|----12.------12.---------|
A|-----10------------|-----------------|-8-11h-----------|-------------------------|
E|--8--------------8-|-----------------|-----------------|-------------------------|

[Chorus]
    Em                 Am               C                  C
e|--8---8---8---8---|---8.---8.-------|---8---8---8---8---|--8.-----8.------------------|
B|--8---8---8---8---|---9.---9.-------|---9---9---9---9---|--11.----11.-----------------|
G|--8---8---8---8---|---10.--10.------|---8---8---8---8---|--8.-----8.------------------|
D|--10--10--10--10--|---10.--10.------|---10--10--10--10--|--12.----12.-----------------|
A|--10--10--10--10--|---8.---8.-------|---11--11--11--11--|--13.----13.-----------------|
E|--8---8---8---8---|-----------------|-------------------|-----------------------------|

Em                      Am             C                  C
e|--8---8---8---8----|--8.---8.-------|---8---8---8---8--|---/8--8--8--8--8--8--8--8----|
B|--8---8---8---8----|--9.---9.-------|---9---9---9---9--|---/11-11-11-11-11-11-11-11---|
G|--8---8---8---8----|--10.--10.------|---8---8---8---8--|---/8--8--8--8--8--8--8--8----|
D|--10--10--10--10---|--10.--10.------|---10--10--10--10-|---/12-12-12-12-12-12-12-12---|
A|--10--10--10--10---|--8.---8.-------|---11--11--11--11-|---/13-13-13-13-13-13-13-13---|
E|--8---8---8---8----|----------------|------------------|------------------------------|

    Em                 Am               C                  C
e|--8---8---8---8---|---8.---8.-------|---8---8---8---8---|--8.-----8.------------------|
B|--8---8---8---8---|---9.---9.-------|---9---9---9---9---|--11.----11.-----------------|
G|--8---8---8---8---|---10.--10.------|---8---8---8---8---|--8.-----8.------------------|
D|--10--10--10--10--|---10.--10.------|---10--10--10--10--|--12.----12.-----------------|
A|--10--10--10--10--|---8.---8.-------|---11--11--11--11--|--13.----13.-----------------|
E|--8---8---8---8---|-----------------|-------------------|-----------------------------|

Em                      Am             C                  C
e|--8---8---8---8----|--8.---8.-------|---8---8---8---8--|---/8--8--8--8--8--8--8--8----|
B|--8---8---8---8----|--9.---9.-------|---9---9---9---9--|---/11-11-11-11-11-11-11-11---|
G|--8---8---8---8----|--10.--10.------|---8---8---8---8--|---/8--8--8--8--8--8--8--8----|
D|--10--10--10--10---|--10.--10.------|---10--10--10--10-|---/12-12-12-12-12-12-12-12---|
A|--10--10--10--10---|--8.---8.-------|---11--11--11--11-|---/13-13-13-13-13-13-13-13---|
E|--8---8---8---8----|----------------|------------------|------------------------------|

Em                      Am             C                  C
e|--8---8---8---8---|--8---8---8---8---|---8---8---8---8---|--8.-----------------------|
B|--8---8---8---8---|--9---9---9---8---|---9---9---9---9---|--11.----------------------|
G|--8---8---8---8---|--10--10--10--10--|---8---8---8---8---|--8.-----------------------|
D|--10--10--10--10--|--10--10--10--10--|---10--10--10--10--|--12.----------------------|
A|--10--10--10--10--|--8---8---8---8---|---11--11--11--11--|--13.----------------------|
E|--8---8---8---8---|------------------|-------------------|---------------------------|

Em                      Am             C                  C
e|--8---8---8---8---|--8---8---8---8---|---8---8---8---8---|--8.-----------------------|
B|--8---8---8---8---|--9---9---9---8---|---9---9---9---9---|--11.----------------------|
G|--8---8---8---8---|--10--10--10--10--|---8---8---8---8---|--8.-----------------------|
D|--10--10--10--10--|--10--10--10--10--|---10--10--10--10--|--12.----------------------|
A|--10--10--10--10--|--8---8---8---8---|---11--11--11--11--|--13.----------------------|
E|--8---8---8---8---|------------------|-------------------|---------------------------|

[Solo]
    Em                 Am               C                  C
e|--8---8---8---8---|---8.------------|---8---8---8---8---|--8.-------------------------|
B|--8---8---8---8---|---9.------------|---9---9---9---9---|--11.------------------------|
G|--8---8---8---8---|---10.-----------|---8---8---8---8---|--8.-------------------------|
D|--10--10--10--10--|---10.-----------|---10--10--10--10--|--12.------------------------|
A|--10--10--10--10--|---8.------------|---11--11--11--11--|--13.------------------------|
E|--8---8---8---8---|-----------------|-------------------|-----------------------------|

    Em                 Am               C                  C
e|--8---8---8---8---|---8.------------|---8---8---8---8---|--8.-------------------------|
B|--8---8---8---8---|---9.------------|---9---9---9---9---|--11.------------------------|
G|--8---8---8---8---|---10.-----------|---8---8---8---8---|--8.-------------------------|
D|--10--10--10--10--|---10.-----------|---10--10--10--10--|--12.------------------------|
A|--10--10--10--10--|---8.------------|---11--11--11--11--|--13.------------------------|
E|--8---8---8---8---|-----------------|-------------------|-----------------------------|

Em                   Am                 C                   C     
e|--8---8---8---8---|--8---8---8---8---|---8---8---8---8---|----8---8---8---8-----------|
B|--8---8---8---8---|--9---9---9---8---|---9---9---9---9---|----11--11--11--11----------|
G|--8---8---8---8---|--10--10--10--10--|---8---8---8---8---|----8---8---8---8-----------|
D|--10--10--10--10--|--10--10--10--10--|---10--10--10--10--|----12--12--12--12----------|
A|--10--10--10--10--|--8---8---8---8---|---11--11--11--11--|----13--13--13--13----------|
E|--8---8---8---8---|------------------|-------------------|----------------------------|

Em                   Am                 C                   C     
e|--8---8---8---8---|--8---8---8---8---|---8---8---8---8---|----8---8---8---8-----------|
B|--8---8---8---8---|--9---9---9---8---|---9---9---9---9---|----11--11--11--11----------|
G|--8---8---8---8---|--10--10--10--10--|---8---8---8---8---|----8---8---8---8-----------|
D|--10--10--10--10--|--10--10--10--10--|---10--10--10--10--|----12--12--12--12----------|
A|--10--10--10--10--|--8---8---8---8---|---11--11--11--11--|----13--13--13--13----------|
E|--8---8---8---8---|------------------|-------------------|----------------------------|

Em                   Am                 C                   C     
e|--8---8---8---8---|--8---8---8---8---|---8---8---8---8---|----8---8---8---8-----------|
B|--8---8---8---8---|--9---9---9---8---|---9---9---9---9---|----11--11--11--11----------|
G|--8---8---8---8---|--10--10--10--10--|---8---8---8---8---|----8---8---8---8-----------|
D|--10--10--10--10--|--10--10--10--10--|---10--10--10--10--|----12--12--12--12----------|
A|--10--10--10--10--|--8---8---8---8---|---11--11--11--11--|----13--13--13--13----------|
E|--8---8---8---8---|------------------|-------------------|----------------------------|

Em                   Am                 C                   C     
e|--8---8---8---8---|--8---8---8---8---|---8---8---8---8---|----8---8---8---8-----------|
B|--8---8---8---8---|--9---9---9---8---|---9---9---9---9---|----11--11--11--11----------|
G|--8---8---8---8---|--10--10--10--10--|---8---8---8---8---|----8---8---8---8-----------|
D|--10--10--10--10--|--10--10--10--10--|---10--10--10--10--|----12--12--12--12----------|
A|--10--10--10--10--|--8---8---8---8---|---11--11--11--11--|----13--13--13--13----------|
E|--8---8---8---8---|------------------|-------------------|----------------------------|

[Bridge]
Em   PALM MUTED       Am   PALM MUTED   C PALM MUTED         C     
e|--8---8---8---8---|--8---8---8---8---|---8---8---8---8---|--8pm-8pm-----8---8---8---8------|
B|--8---8---8---8---|--9---9---9---8---|---9---9---9---9---|--11pm--11pm--11--11--11--11-----|
G|--8---8---8---8---|--10--10--10--10--|---8---8---8---8---|--8pm---8pm---8---8---8---8------|
D|--10--10--10--10--|--10--10--10--10--|---10--10--10--10--|--12pm--12pm--12--12--12--12-----|
A|--10--10--10--10--|--8---8---8---8---|---11--11--11--11--|--13pm--13pm--13--13--13--13-----|
E|--8---8---8---8---|------------------|-------------------|---------------------------------|

Em   PALM MUTED       Am   PALM MUTED   C PALM MUTED         C     
e|--8---8---8---8---|--8---8---8---8---|---8---8---8---8---|--8pm-8pm-----8---8---8---8------|
B|--8---8---8---8---|--9---9---9---8---|---9---9---9---9---|--11pm--11pm--11--11--11--11-----|
G|--8---8---8---8---|--10--10--10--10--|---8---8---8---8---|--8pm---8pm---8---8---8---8------|
D|--10--10--10--10--|--10--10--10--10--|---10--10--10--10--|--12pm--12pm--12--12--12--12-----|
A|--10--10--10--10--|--8---8---8---8---|---11--11--11--11--|--13pm--13pm--13--13--13--13-----|
E|--8---8---8---8---|------------------|-------------------|---------------------------------|

Em   PALM MUTED       Am   PALM MUTED   C PALM MUTED         C  PALM MUTED
e|--8---8---8---8---|--8---8---8---8---|---8---8---8---8---|----8---8---8---8-----------|
B|--8---8---8---8---|--9---9---9---8---|---9---9---9---9---|----11--11--11--11----------|
G|--8---8---8---8---|--10--10--10--10--|---8---8---8---8---|----8---8---8---8-----------|
D|--10--10--10--10--|--10--10--10--10--|---10--10--10--10--|----12--12--12--12----------|
A|--10--10--10--10--|--8---8---8---8---|---11--11--11--11--|----13--13--13--13----------|
E|--8---8---8---8---|------------------|-------------------|----------------------------|

Em   PALM MUTED       Am   PALM MUTED   C PALM MUTED         C  PALM MUTED
e|--8---8---8---8---|--8---8---8---8---|---8---8---8---8---|----8---8---8---8-----------|
B|--8---8---8---8---|--9---9---9---8---|---9---9---9---9---|----11--11--11--11----------|
G|--8---8---8---8---|--10--10--10--10--|---8---8---8---8---|----8---8---8---8-----------|
D|--10--10--10--10--|--10--10--10--10--|---10--10--10--10--|----12--12--12--12----------|
A|--10--10--10--10--|--8---8---8---8---|---11--11--11--11--|----13--13--13--13----------|
E|--8---8---8---8---|------------------|-------------------|----------------------------|

Em   PALM MUTED       Am   PALM MUTED   C PALM MUTED         C  PALM MUTED
e|--8---8---8---8---|--8---8---8---8---|---8---8---8---8---|----8---8---8---8-----------|
B|--8---8---8---8---|--9---9---9---8---|---9---9---9---9---|----11--11--11--11----------|
G|--8---8---8---8---|--10--10--10--10--|---8---8---8---8---|----8---8---8---8-----------|
D|--10--10--10--10--|--10--10--10--10--|---10--10--10--10--|----12--12--12--12----------|
A|--10--10--10--10--|--8---8---8---8---|---11--11--11--11--|----13--13--13--13----------|
E|--8---8---8---8---|------------------|-------------------|----------------------------|

Em   PALM MUTED       Am   PALM MUTED   C PALM MUTED         C  PALM MUTED 
e|--8---8---8---8---|--8---8---8---8---|---8---8---8---8---|----8---8---8---8-----------|
B|--8---8---8---8---|--9---9---9---8---|---9---9---9---9---|----11--11--11--11----------|
G|--8---8---8---8---|--10--10--10--10--|---8---8---8---8---|----8---8---8---8-----------|
D|--10--10--10--10--|--10--10--10--10--|---10--10--10--10--|----12--12--12--12----------|
A|--10--10--10--10--|--8---8---8---8---|---11--11--11--11--|----13--13--13--13----------|
E|--8---8---8---8---|------------------|-------------------|----------------------------|

Em   PALM MUTED       Am   PALM MUTED   C PALM MUTED         C  PALM MUTED 
e|--8---8---8---8---|--8---8---8---8---|---8---8---8---8---|----8---8---8---8-----------|
B|--8---8---8---8---|--9---9---9---8---|---9---9---9---9---|----11--11--11--11----------|
G|--8---8---8---8---|--10--10--10--10--|---8---8---8---8---|----8---8---8---8-----------|
D|--10--10--10--10--|--10--10--10--10--|---10--10--10--10--|----12--12--12--12----------|
A|--10--10--10--10--|--8---8---8---8---|---11--11--11--11--|----13--13--13--13----------|
E|--8---8---8---8---|------------------|-------------------|----------------------------|

[Chorus/Outro]
Em                      Am             C                  C
e|--8---8---8---8---|--8---8---8---8---|---8---8---8---8---|--8.-----------------------|
B|--8---8---8---8---|--9---9---9---8---|---9---9---9---9---|--11.----------------------|
G|--8---8---8---8---|--10--10--10--10--|---8---8---8---8---|--8.-----------------------|
D|--10--10--10--10--|--10--10--10--10--|---10--10--10--10--|--12.----------------------|
A|--10--10--10--10--|--8---8---8---8---|---11--11--11--11--|--13.----------------------|
E|--8---8---8---8---|------------------|-------------------|---------------------------|

Em                      Am             C                  C
e|--8---8---8---8---|--8---8---8---8---|---8---8---8---8---|--8.-----------------------|
B|--8---8---8---8---|--9---9---9---8---|---9---9---9---9---|--11.----------------------|
G|--8---8---8---8---|--10--10--10--10--|---8---8---8---8---|--8.-----------------------|
D|--10--10--10--10--|--10--10--10--10--|---10--10--10--10--|--12.----------------------|
A|--10--10--10--10--|--8---8---8---8---|---11--11--11--11--|--13.----------------------|
E|--8---8---8---8---|------------------|-------------------|---------------------------|

Em                      Am             C                  C
e|--8---8---8---8---|--8---8---8---8---|---8---8---8---8---|--8.-----------------------|
B|--8---8---8---8---|--9---9---9---8---|---9---9---9---9---|--11.----------------------|
G|--8---8---8---8---|--10--10--10--10--|---8---8---8---8---|--8.-----------------------|
D|--10--10--10--10--|--10--10--10--10--|---10--10--10--10--|--12.----------------------|
A|--10--10--10--10--|--8---8---8---8---|---11--11--11--11--|--13.----------------------|
E|--8---8---8---8---|------------------|-------------------|---------------------------|

Em                      Am             C                  C
e|--8---8---8---8---|--8---8---8---8---|---8---8---8---8---|--8.--8.--8.--8.--8.--8.--8.-|
B|--8---8---8---8---|--9---9---9---8---|---9---9---9---9---|--11.-11.-11.-11.-11.-11.-11.|
G|--8---8---8---8---|--10--10--10--10--|---8---8---8---8---|--8.--8.--8.--8.--8.--8.--8.-|
D|--10--10--10--10--|--10--10--10--10--|---10--10--10--10--|--12.-12.-12.-12.-12.-12.-12.|
A|--10--10--10--10--|--8---8---8---8---|---11--11--11--11--|--13.-13.-13.-13.-13.-13.-13.|
E|--8---8---8---8---|------------------|-------------------|-----------------------------|



************************************

| h   Hammer-on
| p   Pull-off
| .   Staccato
| /   Slide up to
| pm  Palm muted

************************************

            
            
Suggest correction
Creating personal tab
Creating personal tab
You can edit any tab online and save it as your Personal.

You can edit, replace or remove any tab part or add personal notes – all changes will be seen only by you.

Personal tabs can be accessed anytime from any device, even offline.
Learn more »
Give kudos to tab author, rate the tab!
1 2 3 4 5
comments
print report bad tab
guest
You may want to rate the tab now too:
select rating
Wanna post a correction for this tab? Suggest correction