Oops, an error
Loading. Please wait.

Maria Del Carmen tab

197 views 1 this week
no commentswrite comment
1 2 3 4 5
3 more votes to show rating
add to favorites
×
Save as Personal and add changes to this tab that will be seen only by you. Learn more ›
×
You can save this tab as Personal to edit and correct it or add notes. All changes will be seen only by you. Learn more »
launch autoscroll
font size
0
reset
how to read this tab
guitar tuner
edit
Autoscroll
slow
fast
+/-
esc
set tempo
stop
Author
Difficulty
  Cocofunka

CANCION: Maria Del Carmen
ALBUM: Elevarse
AÑO:2010

[Actualizado 23/05/13]
[Actualizado 17/09/14]**


Intro      


     Lam  Bm C
|x-x-5----7--8-----------12--12--12--12-------------|
|x-x-5----7--8-----------10--10--10--10-------------|
|x-x-5----7--9-----------9---9---9---9--------------|
|x-x-7----9--10-------------------------------------|
|x-x-7----9--10-------------------------------------|
|x-x-5----7--8--------------------------------------|



Versos y Coros
 
Dicen que el amor es una forma ..... 
|-----------5------------7-----8--------------------|
|-----------5------------7-----8--------------------|
|-----------5------------7-----9--------------------|
|-----------7------------9-----10-------------------|
|-----------7------------9-----10-------------------|
|-----------5------------7-----8--------------------|


A los 2:35 suena esto   

                 
|-5-5--7--------------------------------------------|
|-5-5--7--------/10---------------------------------|
|-5-5--7--------/x----------------------------------|   < x3
|---------------/7----------------------------------|
|---------------------------------------------------|
|---------------------------------------------------|

|-5-5--7--------------------------------------------|
|-5-5--7--------------------------------------------|
|-5-5--7--------------------------------------------|
|---------------------------------------------------|
|---------------------------------------------------|
|---------------------------------------------------|

Solo


|--------------------------8h10-8h10-8h10-8h10-8h10v|
|-----------------5h8-8h10--------------------------|
|-7v-5-4-------5h7----------------------------------|
|-------h7--5h7-------------------------------------|
|---------------------------------------------------|
|---------------------------------------------------|

|-------17-15---------------------------------------|
|-10/13-------17-15----------15---------------------|
|-------------------17-16-17----17-16-14-12/14------|
|---------------------------------------------------|
|---------------------------------------------------|
|---------------------------------------------------|



Final

Esta parte se toca varias veces.

Guitarra 1

|-----17-15-----------------------------------------|
|-----------17-15----------15-----------------------|
|-----------------17-16-17----17-16-14-12/14--------|
|---------------------------------------------------|
|---------------------------------------------------|
|---------------------------------------------------|

Guitarra 2

|-12-10---------------------------------------------|
|-------13-12-10----10-12-13-12-10------------------|
|----------------12---------------------------------|
|---------------------------------------------------|
|---------------------------------------------------|
|---------------------------------------------------|


http://cocofunka.bandcamp.com

            
            
Suggest correction
Creating personal tab
Creating personal tab
You can edit any tab online and save it as your Personal.

You can edit, replace or remove any tab part or add personal notes – all changes will be seen only by you.

Personal tabs can be accessed anytime from any device, even offline.
Learn more »
Give kudos to tab author, rate the tab!
1 2 3 4 5
comments
print report bad tab
guest
You may want to rate the tab now too:
select rating
Wanna post a correction for this tab? Suggest correction