Oops, an error
Loading. Please wait.

Pamela tab

by Coda
56 views 1 this week
no commentswrite comment
1 2 3 4 5
3 more votes to show rating
add to favorites
×
Save as Personal and add changes to this tab that will be seen only by you. Learn more ›
×
You can save this tab as Personal to edit and correct it or add notes. All changes will be seen only by you. Learn more »
launch autoscroll
font size
0
reset
how to read this tab
guitar tuner
edit
Autoscroll
slow
fast
+/-
esc
set tempo
stop
Esta tablatura la dedico a toda la raza que estubo pidiendola mucho, y un saludo para
MI grupo WIZOK.

Go Wizok Go !!!!!!!!!!


Riff de intro

      A                              F#m-------C#m                   
1. --------------------------------|---------------------------|
2. --------------------------------|---------------------------|
3. ---2-2------2---2---------------|------------6-----6-----6--|
4. ---2-2------2---2----2---2-4-4~~|-4-4-----4--6-----6-----6--|
5. ---0-0--0-0-0-0-0--0---0--------|-4-4-----4--4-4-4-4---4-4-4|
6. --------------------------------|-2-2-2-2-2-----------------|
           P P   P    P   P              P P      P P     P   P 


      D     D-E-F#                   E                                      D
1. ---------------------------------------------------------------------------|
2. ---------------------------------------10-9-7------10-9T10-9-7---10-9------|
3. ---7-7---7-9-11------11----11-11--9-----------9----------------9---------7-|
4. ---7-7---7-9-11------11----11-11--9--------------------------------------7-|
5. ---5-5---5-7-9----99-9--99-9--9---7--------------------------------------5-|
6. ---------------------------------------------------------------------------|
            P P      PP    PP


  F#m                            F#m
Pamela era una linda chica, De aquellas que todos aman

  D                                     D
Pero ella solo amaba las cosas que papa decia que no

  F#m                F#m        
Dany decia que lo acompñaba la suerte

   D                             F#m
Pregonaba sensivilidad tras su guitarra


D                  E
 Dany simplemente amaba a pam


**(Riff de intro con el coro)**

A                            F#m---------C#m
Solo tengo el vicio de tu boca, El unico placer

    D     D-E-F#   E     D
QUe puede dibujar    Mi mente

 

  F#m                   F#m
Pamela se dejo llevar Por las bellas mentiras

     D                             D
De a par de pipo que escondian sus Sentidos tras una abuja

    F#m                F#m
Y asi caia y caia Tratando de engañar a dany

      D                                  F#m
En un mundo de falsedad que desmentia un brazo lleno de piquetes


D                  E
 Dany simplemente amaba a pam


**(Riff de intro con el coro)**

A                            F#m---------C#m
Solo tengo el vicio de tu boca, El unico placer

    D     D-E-F#   E     D
QUe puede dibujar    Mi mente


*Esta parte se toca con Palm Mute


F#m      E                   D
 Ella nunca salio de aquello, Pues su mente quedo trastornada

F#m     E              D         
    Y ahora dany solo  gasta los dias con ella


SOlo: el solo va a compañado por los siguientes Riffs


Riff 1

    E-F#m                       F#m-E
1. -----------------------------------
2. -----------------------------------
3. -9-11-----11-----11-----11----11-9-  El seguimiento de los riffs son los siguientes :
4. -9-11-----11-----11-----11----11-9- 
5. -7-9--9-9-9--9-9-9--9-9-9---9-9--7-      Primera ves | Segunda ves 
6. -----------------------------------         Riff 1   |  Riff 1
         P P    P P    P P     P               Riff 1   |  Riff 1
                                               Riff 2   |  Riff 2
Riff 2                                         Riff 1   |  Riff 1

    E D                         E D
1. ------------------------------------
2. ------------------------------------
3. -9-7------7------7------7----9-7----
4. -9-7------7------7------7----9-7----   
5. -7-5--5-5-5--5-5-5--5-5-5--5-7-5----                                    
6. ------------------------------------
         P P    P P    P P    P


F#m       E       D 
    Solo tengo el vicio de tu boca

F#m      E               D        E
        Solo te tengo a ti


**En el Final el coro sube 1 tono y son los siguientes acordes**

      B                              G#m-------D#m                   
1. --------------------------------|---------------------------|
2. --------------------------------|---------------------------|
3. ---4-4------4---4---------------|------------8-----8-----8--|
4. ---4-4------4---4----4---4-6-6~~|-6-6-----6--8-----8-----8--|
5. ---2-2--2-2-2-2-2--2---2--------|-6-6-----6--6-6-6-6---6-6-6|
6. --------------------------------|-4-4-4-4-4-----------------|
           P P   P    P   P              P P      P P     P   P 


      E    E-F#m-G#m                      F#m                                   
1. -----------------------------------------------------------------------|
2. -----------------------------------------------------------------------|
3. ---9-9---9-11-13------13------13-13----11------11-11-----11---11-11----|
4. ---9-9---9-11-13------13------13-13----11------11-11-----11---11-11----|
5. ---7-7---7-9--11---11-11---11-11-11----9-----9-9--9----9-9--9-9--9-----|
6. -----------------------------------------------------------------------|
            P P       P       P                 P         P    P


B                            G#m---------D#m
Solo tengo el vicio de tu boca, El unico placer

    E     E-F#m-G#m      
QUe puede dibujar   


Al terminarLos ultimos 2 tiempos solo tocan el siguiente riff ya sin tocar 

los acordes de D, E y F#m

      A                              F#m-------C#m                   
1. --------------------------------|---------------------------|
2. --------------------------------|---------------------------|
3. ---2-2------2---2---------------|------------6-----6-----6--|
4. ---2-2------2---2----2---2-4-4~~|-4-4-----4--6-----6-----6--|
5. ---0-0--0-0-0-0-0--0---0--------|-4-4-----4--4-4-4-4---4-4-4|
6. --------------------------------|-2-2-2-2-2-----------------|
           P P   P    P   P              P P      P P     P   P 


Y para terminar la rola

      A     B                                          
1. --------------------------------|
2. --------------------------------|
3. ---9-----4----------------------|
4. ---9-----4----------------------|
5. ---7-----2----------------------|
6. --------------------------------|


Si tienen alguna duda o pregunta mi mail es chido_66@

            
            
Suggest correction
Creating personal tab
Creating personal tab
You can edit any tab online and save it as your Personal.

You can edit, replace or remove any tab part or add personal notes – all changes will be seen only by you.

Personal tabs can be accessed anytime from any device, even offline.
Learn more »
Give kudos to tab author, rate the tab!
1 2 3 4 5
comments
print report bad tab
guest
Wanna post a correction for this tab? Suggest correction