Oops, an error
Loading. Please wait.

Tocame tab

version 3
version 3

Whole song

Interactive

by Coda
182 views 1 this week
no commentswrite comment
1 2 3 4 5
3 more votes to show rating
add to favorites
×
Save as Personal and add changes to this tab that will be seen only by you. Learn more ›
×
You can save this tab as Personal to edit and correct it or add notes. All changes will be seen only by you. Learn more »
launch autoscroll
font size
0
reset
how to read this tab
guitar tuner
edit
Autoscroll
slow
fast
+/-
esc
set tempo
stop
Bueno, vamos con mi version de la canción Tocame,
una de mis favoritas, la cuestion es ordenar la parte 
del intro, el pre chorus y el coro, esta sencilla

Intro

Los acodes utilizados en el intro son

             B5,C5,D5,E5

e------------------------------------
B------------------------------------
G------0--------0--------0--------0--
D----0-------0--------0--------0-----   x4
A--2------3--------5--------7--------
E------------------------------------


e------------------------------------
B------------------------------------
G------------------------------------
D--4-4-4----5-5-5------7-------------   
A--2-2-2----3-3-3------5-------------
E------------------------------------

e------------------------------------
B------------------------------------
G------------------------------------
D--4---5---7---9---------------------    x4   
A--2---3---5---7---------------------
E------------------------------------

e--------------------------------12*-
B------------------------------------  Que suene
G--------9--------------------------- el harmonico
D-----9------------------------------       
A--7---------------------------------
E------------------------------------

Aqui ya empieza con la voz

Pre Chorus

Los acodes utilizados son

Am, C, G, D (Pueden ser los sencillos o con cejilla)

  Dejame tocarte, dibujar en cada momento hasta el fin

e---0-------0-------3---------------2-----------------
B---1-------1-------3---------------3-----------------
G---2-------0-------0---------------2-----------------
D---2-------2-------0---------------0-----------------
A---0-------3-------2---------------x-----------------
E---x-------0-------3---------------x-----------------

    que se siente intensamente     en tu          desnudez
e-------------------------------------------------2------2----
B-----1-----1--------1-----1--------3-----3---------3------3--
G-------2-----2--------0-----0--------0-----0---------2------2
D---------2-----2--------2-----2--------0-----0-0-------------
A---0--------------3------------------------------------------
E---------------------------------3---------------------------

En esta parte, se pueden tocarlos acordes normales o con cejilla

Soy capaz de todo por ti, y no se si tengo

e---0-------0--------------3------------2--
B---1-------1--------------3------------3--
G---2-------0--------------0------------2--
D---2-------2--------------0------------0--
A---0-------3--------------2------------x--
E---x-------0--------------3------------x--

eres frio y calor, siempre igual, siempre igual

e---0-------0-------3---------------2-----------------
B---1-------1-------3---------------3-----------------
G---2-------0-------0---------------2-----------------
D---2-------2-------0---------------0-----------------
A---0-------3-------2---------------x-----------------
E---x-------0-------3---------------x-----------------

Coro()

1ra guitarra

Otra vez tocame el alma

e------------------------------------
B------------------------------------
G------------------------------------
D--4---5---7------9------------------       
A--2---3---5------7------------------
E------------------------------------

     solo tocame

e------------------------------------
B------------------------------------
G------------------------------------
D--4---5---7------9------------------      
A--2---3---5------7------------------
E------------------------------------

otra vez como tu sabes hacerlo

e------------------------------------
B------------------------------------
G------------------------------------
D--4---5---7------9------------------      
A--2---3---5------7------------------
E------------------------------------

      solo tocame

e------------------------------------
B------------------------------------
G------------------------------------
D--4---5---7------9------------------       
A--2---3---5------7------------------
E------------------------------------

*Se repite la misma parte del inicio con los acordes

Puedes seducirme 
hacer que caiga rendido a tus pies
puedes ignorarme y hacerme enloquecer
pero esta noche nada es igual
es un matiz de ternura
guardate por siempre asi
quedete por siempre asi

*Y se repite la parte del coro

**Solo (Aun no)**

Pero esta noche nada es igual
es un matiz de ternura
dejate morir asi
rozando la locura

*Se repite la parte del intro

Tocame el alma, tocame yeah hey hey 

*Se repite la parte de

Otra vez tocame el alma

*Y con lo que se tiene se toca el outro

*El solo del outro no lo saco todavia

Bueno espero que les guste y sobre todo que le entiendan
si tienen alguna duda, comentario o correcciones , aqui les 
dejo mi correo halcondeinvierno@

Y aprovecho para dedicar esta cancion al amor de mi vida
Maria Del Carmen Murillo Torres, y te doy gracias por este
tiempo 'junto' a ti, gracias por hacerme tan feliz. Te Amo

            
            
Suggest correction
Creating personal tab
Creating personal tab
You can edit any tab online and save it as your Personal.

You can edit, replace or remove any tab part or add personal notes – all changes will be seen only by you.

Personal tabs can be accessed anytime from any device, even offline.
Learn more »
Give kudos to tab author, rate the tab!
1 2 3 4 5
comments
print report bad tab
guest
Wanna post a correction for this tab? Suggest correction