Oops, an error
Loading. Please wait.

Awake All Night tab

version 3
version 3

Whole song

702 views 1 this week
1 commentread comment
1 2 3 4 5
3 more votes to show rating
add to favorites
×
Save as Personal and add changes to this tab that will be seen only by you. Learn more ›
×
You can save this tab as Personal to edit and correct it or add notes. All changes will be seen only by you. Learn more »
launch autoscroll
font size
0
reset
how to read this tab
guitar tuner
edit
Autoscroll
slow
fast
+/-
esc
set tempo
stop
Author
Difficulty
This is the first tab I have ever done! I really liked this song so i decided to
try and do a tab by ear. I also watched his music video closely to see how he
plays the song. I know this tab might not be perfect but if there is anything you
would suggest for it, I would love to hear it!! Just try and get the feel for the
song while you play along with this tab! I hope you liked it and enjoy!! :)

**I FIXED THE SOLO BECAUSE I REALIZED IT WAS WRONG. ALSO, DISREGARD MY COMMENT
BECAUSE I JUST REALIZED I COULD FIX IT! LMAO! I HOPE THIS IS RIGHT!!**

**STANDARD TUNING AND NO CAPO USED**

CHORDS USED:
F Chord:                   C Chord:                       D# Chord:                  A# Chord:
E[-8-]                        E[-8-]                        E[-6-]                       E[-6-]
B[-10-]                       B[-8-]                        B[-8-]                       B[-6-]
G[-10-]                       G[-9-]                        G[-8-]                       G[-7-]
D[-10-]                       D[-10-]                       D[-8-]                       D[-8-]
A[-8-]                        A[-10-]                       A[-6-]                       A[-8-]
E[-8-]                        E[-8-]                        E[-6-]                       E[-6-]



VERSE:
Chords:
F Chord --> C Chord --> D# Chord --> A# chord
**hold the A# Chord the last time it comes around, each time you play the verse and let it ring**
**H= hit strings**
Finger Plucking Pattern:
E[--------X--H-]
B[-X---------H-]
G[-----X-----H-]
D[-----------H-]
A[-X---------H-]
E[-----------H-]



SOLO:
**()=let it ring; bend up and down**
**h= hammer on**
E[-------------------------------------------------------------------------------------------]
B[-----------------(8)------------------(6)-------------13-(8)-------------------------------]
G[-12-12h14-12h14----12-12h14-12h14-----12-12h14-12------12-12h14-12h14-12-9-----------------]
D[-------------------------------------------------------------------------------12-9--------]
A[--------------------------------------------------------------------------------------(8)--]
E[--------------------------------------------------------------------------------------(8)--]



CHORUS:
Chords used:
F Chord --> C Chord --> D# Chord --> A# Chord
**hold the A# Chord the last time it comes around, each time you play the chorus and let it ring**
Strumming:
1)DOWN *pause for one count* UP DOWN and then change chords
OR
2) use the same plucking pattern that you use for the verse



ORDER:
Verse X2
Solo
Verse X7
Chorus X5
Solo
Verse X7
Chorus X5
Solo X2
then slowly strum the F Chord DOWN the strings

            
            
Suggest correction
Creating personal tab
Creating personal tab
You can edit any tab online and save it as your Personal.

You can edit, replace or remove any tab part or add personal notes – all changes will be seen only by you.

Personal tabs can be accessed anytime from any device, even offline.
Learn more »
Give kudos to tab author, rate the tab!
1 2 3 4 5
comments
print report bad tab
1 comment total.
0 reply
sbswagg 31 Sep 02, 2013 12:34 PM

**I FIXED THE SOLO BECAUSE I REALIZE IT WAS INCORRECT. I HOPE THIS IS BETTER! THANKS! :) **

E[---------------------------------------------------------------------------------]
B[--------------(8)--------------(6)-----------13-(8)------------------------------]
G[12-12h14-12h14---12-12h14-12h14---12-12h14-12-------12-12h14-12h14-12-10---------]
D[-------------------------------------------------------------------------12-10--]
A[--------------------------------------------------------------------------------8]
E[--------------------------------------------------------------------------------8]

guest
You may want to rate the tab now too:
select rating
Wanna post a correction for this tab? Suggest correction