Oops, an error
Loading. Please wait.

Atlas tab

version 2
version 2

Whole song

  • Matched 100% to video https://youtu.be/XCLUc1BtqGM.

Interactive

Video

217 views 6 this week
no commentswrite comment
1 2 3 4 5
3 more votes to show rating
add to favorites
×
Save as Personal and add changes to this tab that will be seen only by you. Learn more ›
×
You can save this tab as Personal to edit and correct it or add notes. All changes will be seen only by you. Learn more »
launch autoscroll
font size
0
reset
how to read this tab
guitar tuner
edit
Autoscroll
slow
fast
+/-
esc
set tempo
stop
Artist: Coheed and Cambria
Song: Atlas

Video Link - https://youtu.be/XCLUc1BtqGM

Credit to brainyboy12001

[Intro] (x1)
(0:00 - 0:22)
e:|------------------------------------------------------------------|
B:|-------------------------------------------------------------10-7-|
G:|------7-----9-----11-----7-----12----11-----9v----9v----7---------|
D:|---------0-----0------0-----0-----0------0-----0-----0-----0------|
A:|------------------------------------------------------------------|
D:|---0~-------------------------------------------------------------|

e:|------------------------------------------------------------------|
B:|--------------------------------------------------------3-----3---|
G:|------7-----9-----11\-----4-----4-----2-----0-----2-------------2-|
D:|---------0-----0-------0-----0-----0-----0-----0-----0-----0------|
A:|------------------------------------------------------------------|
D:|---0~-------------------------------------------------------------|

e:|------------------------------------------------------------------|
B:|-------------------------------------------------------------10-7-|
G:|------7-----9-----11-----7-----12----11-----9v----9v----7---------|
D:|---------0-----0------0-----0-----0------0-----0-----0-----0------|
A:|------------------------------------------------------------------|
D:|---0~-------------------------------------------------------------|

e:|----------------------------------------------------------------|
B:|-------10-----7-----5-----8-----7-7v----------------------------|
G:|----------------------------------------------------------------|
D:|-----------0-----0-----0-----0----------------------------------|
A:|----------------------------------------------------------------|
D:|----------------------------------------------------------------|

[Verse]
(23"00 - 58:00)
We carried on unnoticed, thinking that
All dream were ours for the taking

And out of that we found ourselves back
At the start of it all
So scarred and incomplete

Only now I've come to this moment in my life
Fitting pieces to a puzzle with no regrets
But if I had just one chance left

e:|-----------x-x---------x-x---------------x-x----------x-x-------|
B:|---------0-x-x-------0-x-x----0--------0-x-x-------0--x-x--0----|
G:|---7-7-7-x-x-x-7-7-7-x-x-x-7--x--7-7-7-x-x-x-7-7-7-x-x-x-7-x----|
D:|---7-7-7-5-x-x-7-7-7-5-x-x-7--5--7-7-7-5-x-x-7-7-7-5-x-x-7-5----|
A:|---5-5-5-5-x-x-5-5-5-5-x-x-5--5--5-5-5-5-x-x-5-5-5-5-x-x-5-5----|
D:|---5-5-5-5-x-x-5-5-5-5-x-x-5--5--5-5-5-5-x-x-5-5-5-5-x-x-5-5----|

e:|----------------------------------------------------------------|
B:|----------------------------------------------------------------|
G:|--------7~---6-----------------------7~---6---------------------|
D:|-------7-------7-9\--4--4-----------7-------7-9\--4--4----------|    
A:|------5-------------------7-5------5-------------------7-5------|
D:|---0-----------------------------0------------------------------|   x2


e:|-----------x-x---------x-x---------------x-x----------x-x-------|
B:|---------0-x-x-------0-x-x----0--------0-x-x-------0--x-x--0----|
G:|---7-7-7-x-x-x-7-7-7-x-x-x-7--x--7-7-7-x-x-x-7-7-7-x-x-x-7-x----|
D:|---7-7-7-5-x-x-7-7-7-5-x-x-7--5--7-7-7-5-x-x-7-7-7-5-x-x-7-5----|
A:|---5-5-5-5-x-x-5-5-5-5-x-x-5--5--5-5-5-5-x-x-5-5-5-5-x-x-5-5----|
D:|---5-5-5-5-x-x-5-5-5-5-x-x-5--5--5-5-5-5-x-x-5-5-5-5-x-x-5-5----|

e:|----------------------------------------------------------------|
B:|----------------------------------------------------------------|
G:|--------7~---6---------------------7-77-7-777-77----------------|
D:|-------7-------7-9\--4--4----------x-xx-x-xxx-xx----------------|
A:|------5-------------------7-5------5-55-5-555-55----------------|
D:|---0----------------------------0-------------------------------|

[Pre-Chorus]
(59:00 - 1:23)
I'd hold on to it close
With what little confidence I have
And make no mistakes
As your life's surely about to change for the better half
Now on your mark, get set, clock starts to count
'Cause boy, everything's about to go down

e:|------------------------------------------------------------------|
B:|------------------------------------------------------------------|
G:|-------------4~---------------------------------------------------|
D:|---5~--------4~----2~---------------------------------------------|
A:|---5~--------2~----0~---------------------------------------------|
D:|---5~-------------------------------------------------------------| x4

[Pre-Chorus 2]
(1:24 - 1:34)
e:|------------------------------------------------------------------|
B:|-------7-----10-----5-----8-----7-----2-----3-----5-----0---0-----|
G:|--------------------------------------------------------------2---|
D:|----------0------0-----0-----0-----0-----0-----0-----0------------|
A:|------------------------------------------------------------------|
D:|---0~-------------------------------------------------------------|

e:|------------------------------------------------------------------|
B:|------7-----10-----5-----8-----7-7v-------------------------------|
G:|------------------------------------------------------------------|
D:|------------------------------------------------------------------|
A:|------------------------------------------------------------------|
D:|---0-----0------0-----0-----0-------------------------------------|

[Chorus] (x1)
(1:35 - 2:05)
So sleep tight, little Atlas
'Cause when your daddy goes off just you know
That you're the weight of his anchor,
The love that is guiding him home,
The love that's guiding him home (ooh, ooh, ooh)

e:|-------------------------------------------------------------------|
B:|-------------------------------------------------------------------|
G:|-----------------7-------------4------2----------------------------|
D:|---5------2------7------5------4------2----------------------------|
A:|---5------2------5(x16)-5------2(x16)-0(x16)-----------------------|
D:|---5(x16)-2(x16)--------5(x16)-------------------------------------|

e:|-----------x-x---------x-x---------------x-x----------x-x--------|
B:|---------0-x-x-------0-x-x----0--------0-x-x-------0--x-x--------|
G:|---7-7-7-x-x-x-7-7-7-x-x-x-7--x--7-7-7-x-x-x-7-7-7-x-x-x-7-------|
D:|---7-7-7-5-x-x-7-7-7-5-x-x-7--5--7-7-7-5-x-x-7-7-7-5-x-x-7-5--0~-|
A:|---5-5-5-5-x-x-5-5-5-5-x-x-5--5--5-5-5-5-x-x-5-5-5-5-x-x-5-5--0~-|
D:|---5-5-5-5-x-x-5-5-5-5-x-x-5--5--5-5-5-5-x-x-5-5-5-5-x-x-5-5--0~-|

[Verse]
Oh, I've had my share of leaving this retreat,
But never did it once feel anything like you, you see

And if there's one good thing that comes from my away
It's that you won't be anything like me
And so better for it you will be

e:|-----------x-x---------x-x---------------x-x----------x-x-------|
B:|---------0-x-x-------0-x-x----0--------0-x-x-------0--x-x--0----|
G:|---7-7-7-x-x-x-7-7-7-x-x-x-7--x--7-7-7-x-x-x-7-7-7-x-x-x-7-x----|
D:|---7-7-7-5-x-x-7-7-7-5-x-x-7--5--7-7-7-5-x-x-7-7-7-5-x-x-7-5----|
A:|---5-5-5-5-x-x-5-5-5-5-x-x-5--5--5-5-5-5-x-x-5-5-5-5-x-x-5-5----|
D:|---5-5-5-5-x-x-5-5-5-5-x-x-5--5--5-5-5-5-x-x-5-5-5-5-x-x-5-5----|


e:|----------------------------------------------------------------|
B:|----------------------------------------------------------------|
G:|--------7~---6-----------------------7~---6---------------------|
D:|-------7-------7-9\--4--4-----------7-------7-9\--4--4----------|    
A:|------5-------------------7-5------5-------------------7-5------|
D:|---0-----------------------------0------------------------------|   


e:|-----------x-x---------x-x---------------x-x----------x-x-------|
B:|---------0-x-x-------0-x-x----0--------0-x-x-------0--x-x--0----|
G:|---7-7-7-x-x-x-7-7-7-x-x-x-7--x--7-7-7-x-x-x-7-7-7-x-x-x-7-x----|
D:|---7-7-7-5-x-x-7-7-7-5-x-x-7--5--7-7-7-5-x-x-7-7-7-5-x-x-7-5----|
A:|---5-5-5-5-x-x-5-5-5-5-x-x-5--5--5-5-5-5-x-x-5-5-5-5-x-x-5-5----|
D:|---5-5-5-5-x-x-5-5-5-5-x-x-5--5--5-5-5-5-x-x-5-5-5-5-x-x-5-5----|

e:|----------------------------------------------------------------|
B:|----------------------------------------------------------------|
G:|--------7~---6---------------------7-77-7-777-77----------------|
D:|-------7-------7-9\--4--4----------x-xx-x-xxx-xx----------------|
A:|------5-------------------7-5------5-55-5-555-55----------------|
D:|---0----------------------------0-------------------------------|

[Chorus]
So sleep tight, little Atlas
'Cause when your daddy goes off just you know
That you're the weight of his anchor,
The love that is guiding him home,

e:|-------------------------------------------------------------------|
B:|-------------------------------------------------------------------|
G:|-----------------7-------------4------2----------------------------|
D:|---5------2------7------5------4------2----------------------------|
A:|---5------2------5(x16)-5------2(x16)-0(x16)-----------------------|
D:|---5(x16)-2(x16)--------5(x16)-------------------------------------|

[Bridge] (x1)
(2:46 - 3:22)
The love that's guiding him home,
The love that's guiding him home, {ooh's begin}
The love that's guiding him home,
The love that's guiding him home

e:|------------------------------------------------------------------|
B:|------------------------------------------------------------------|
G:|---7-------------7-------------4-------------7~-------------------|
D:|---7------5------7------5------4------5------7~-------------------|
A:|---5(x32)-5------5(x32)-5------2(x32)-5------5~-------------------|
D:|----------5(x32)--------5(x32)--------5(x32)----------------------|

[Intro]
e:|------------------------------------------------------------------|
B:|-------------------------------------------------------------10-7-|
G:|------7-----9-----11-----7-----12----11-----9v----9v----7---------|
D:|---------0-----0------0-----0-----0------0-----0-----0-----0------|
A:|------------------------------------------------------------------|
D:|---0~-------------------------------------------------------------|

e:|------------------------------------------------------------------|
B:|--------------------------------------------------------3-----3---|
G:|------7-----9-----11\-----4-----4-----2-----0-----2-------------2-|
D:|---------0-----0-------0-----0-----0-----0-----0-----0-----0------|
A:|------------------------------------------------------------------|
D:|---0~-------------------------------------------------------------|

e:|------------------------------------------------------------------|
B:|-------------------------------------------------------------10-7-|
G:|------7-----9-----11-----7-----12----11-----9v----9v----7---------|
D:|---------0-----0------0-----0-----0------0-----0-----0-----0------|
A:|------------------------------------------------------------------|
D:|---0~-------------------------------------------------------------|

e:|----------------------------------------------------------------|
B:|-------10-----7-----5-----8-----7-7v----------------------------|
G:|----------------------------------------------------------------|
D:|-----------0-----0-----0-----0----------------------------------|
A:|----------------------------------------------------------------|
D:|----------------------------------------------------------------|

[Bridge 2] (x1)
(3:46 - 4:09)
So sleep tight, little Atlas
'Cause when your daddy goes off just you know
That you're the weight of his anchor,
The love that is guiding him home


e:|---------------------------------------------------------------------|
B:|--------------------------------------7------------------------------|
G:|---------7~----------2~--------7---9-------------7~------------------|
D:|-------5-----------2--------7---7---7---7-----5----------------------|
A:|-----5-----------2--------5-----------------5------------------------|
D:|---5-----------2--------------------------5--------------------------|

e:|--------------------------------------------------------------------|
B:|---------3~----------2~---------------------------------------------|
G:|-------4-----------2------------------------------------------------|
D:|-----4-----------2---------------------------------55555555---------|
A:|---2-----------0------------5---5---5---5--5555555555555555---------|
D:|--------------------------5---5---5---5----5555555555555555---------|

[Chorus]
So sleep tight, little Atlas
'Cause when your daddy goes off, 'cause when your daddy goes off
You're the weight of his anchor,
The love that is guiding him home

e:|-------------------------------------------------------------------|
B:|-------------------------------------------------------------------|
G:|-----------------7-------------4------2----------------------------|
D:|---5------2------7------5------4------2----------------------------|
A:|---5------2------5(x16)-5------2(x16)-0(x16)-----------------------|
D:|---5(x16)-2(x16)--------5(x16)-------------------------------------|

[Outro] (x3)
(4:27 - 5:35)
There's no running away from what's been done here (There's no running away)
Will you sink with the ship or will you burn it down? (Will you burn it down?)
Now give us the man that you've been hiding
'Cause this is your, this is your life (This is your life)
This is your life now (Now)

This is, this, this is, this is your life now

e:|------------------------------------------------------------------|
B:|------------------------------------------------------------------|
G:|---7-------------4------------------------------------------------|
D:|---7------5------4------5-----------------------------------------|
A:|---5(x32)-5------2(x32)-5-----------------------------------------|
D:|----------5(x32)--------5(x32)------------------------------------|

end

***********************************

| x   Dead note
| \   Slide-down
| ~   Vibrato

***********************************

            
            
Suggest correction
Creating personal tab
Creating personal tab
You can edit any tab online and save it as your Personal.

You can edit, replace or remove any tab part or add personal notes – all changes will be seen only by you.

Personal tabs can be accessed anytime from any device, even offline.
Learn more »
Give kudos to tab author, rate the tab!
1 2 3 4 5
comments
print report bad tab
guest
You may want to rate the tab now too:
select rating
Wanna post a correction for this tab? Suggest correction