Oops, an error
Loading. Please wait.

Dark Side Of Me tab

version 3
version 3

Whole song

Interactive

14,153 views 30 this week
5 commentsread comments
1 2 3 4 5
x 14
add to favorites
×
Save as Personal and add changes to this tab that will be seen only by you. Learn more ›
×
You can save this tab as Personal to edit and correct it or add notes. All changes will be seen only by you. Learn more »
launch autoscroll
font size
0
reset
how to read this tab
guitar tuner
edit
Autoscroll
slow
fast
+/-
esc
set tempo
stop
Author
Difficulty
Song Title: Dark Side of Me
Band Name: Coheed and Cambria
Album Name: The Afterman: Descension [2012]

Intro:

Travis:
e||---------------------------------------------------------------|
B||---------------------------------------------------------------|
G||-3---0---0----5---0---0---8-----7------------8-----------------|
D||--------------------------------------10-----------10-----8----| 2x
A||-3-----3-------------------------------------------------------|
E||--------------4-----4-----6-6-6-6-6-6-6--6-6-6-6-6-6--6-6-6----|

Stanza 1:

Travis:
e||---------------------------------------------------------------|
B||---------------------------------------------------------------|
G||-3---0---0----5---0---0---8-----7------------8-----------------|
D||--------------------------------------10-----------10-----8----|
A||-3-----3-------------------------------------------------------|
E||--------------4-----4-----6-6-6-6-6-6-6--6-6-6-6-6-6--6-6-6----|

e||-----------------------------------------------------------------|
B||-----------------------------------------------------------------|
G||-3---0---0----5---0---0---8-----7------------8-------------------|
D||--------------------------------------10-----------10-----8------|
A||-3-----3---------------------------------------------------------|
E||--------------4-----4-----6-6-6-6-6-6-6--6-6-6-6-6-6--6-6-6------|

e||-----------------------------------------------------------------|
B||-----------------------------------------------------------------|
G||-3---0---0----5---0---0---8-----7------------8-------------------|
D||--------------------------------------10-----------10-----8------|
A||-3-----3---------------------------------------------------------|
E||--------------4-----4-----6-6-6-6-6-6-6--6-6-6-6-6-6--6-6-6------|


e||------------------------------------------------|
B||------------------------------------------------|
G||-3---0---0----5---0---0---8-----7------------8--|
D||--------------------------------------10--------|
A||-3-----3----------------------------------------|
E||--------------4-----4-----6-6-6-6-6-6-6--6-6-6--|

Claudio: (Enters in 3rd part of Stanza 1)

e||------------------||  ||----------------------------------|
B||------------------||  ||----------------------------------|
G||---------3-0------||  ||----------------------------------|
D||---5-6-3----------||6x||-5-5-5-5-5-5-5-5-5-5-5-5-5-5-5-5--|
A||-3-----------6-3--||  ||----------------------------------|
E||------------------||  ||----------------------------------|
    * * * * * * * *

Chorus:

Travis:

e||----------------------------||  ||-----------------------|
B||----------------------------||  ||-----------------------|
G||----10--12--8-----8--10-----||  ||-8---------------------|
D||-8-------------8---------8--||7x||----12--10--8------12--|
A||----------------------------||  ||---------------10------|
E||----------------------------||  ||-----------------------|

Claudio:

e||------------------------------------------------------------------------||  ||-----|
B||------------------------------------------------------------------------||  ||-----|
G||-2222222222222222--5555555555555555--5555555555555555--33333333XXXXX-//-||  ||-5~--|
D||-3333333333333333--6666666666666666--5555555555555555--33333333XXXXX-//-||2x||-5~--|
A||-3333333333333333--6666666666666666--3333333333333333--11111111XXXXX-//-||  ||-3~--|
E||-1111111111111111--4444444444444444----------------------------XXXXX-//-||  ||-----|


Stanza 2:

Travis:

e||---------------------------------------------------------------|
B||---------------------------------------------------------------|
G||-3---0---0----5---0---0---8-----7------------8-----------------|
D||--------------------------------------10-----------10-----8----|
A||-3-----3-------------------------------------------------------|
E||--------------4-----4-----6-6-6-6-6-6-6--6-6-6-6-6-6--6-6-6----|

e||--------------------------------------------------|
B||--------------------------------------------------|
G||-3---0---0----5---7p5---5---8-----7------------8--|
D||----------------------------------------10--------|
A||-3-----3------------------------------------------|
E||--------------4-------4-----6-6-6-6-6-6-6--6-6-6--|

e||---------------------------------------------------------------|
B||---------------------------------------------------------------|
G||-3---0---0----5---0---0---8-----7------------8-----------------|
D||--------------------------------------10-----------10-----8----|
A||-3-----3-------------------------------------------------------|
E||--------------4-----4-----6-6-6-6-6-6-6--6-6-6-6-6-6--6-6-6----|

e||--------------------------------------------------|
B||--------------------------------------------------|
G||-3---0---0----5---7p5---5---8-----7------------8--|
D||----------------------------------------10--------|
A||-3-----3------------------------------------------|
E||--------------4-------4-----6-6-6-6-6-6-6--6-6-6--|

Claudio:

e||------------------||  ||----------------------------------|
B||------------------||  ||----------------------------------|
G||---------3-0------||  ||----------------------------------|
D||---5-6-3----------||6x||-5-5-5-5-5-5-5-5-5-5-5-5-5-5-5-5--|
A||-3-----------6-3--||  ||----------------------------------|
E||------------------||  ||----------------------------------|
    * * * * * * * *

Chorus:

Travis:

e||----------------------------||  ||-----------------------|
B||----------------------------||  ||-----------------------|
G||----10--12--8-----8--10-----||  ||-8---------------------|
D||-8-------------8---------8--||7x||----12--10--8------12--|
A||----------------------------||  ||---------------10------|
E||----------------------------||  ||-----------------------|

Claudio:

e||------------------------------------------------------------------------|
B||------------------------------------------------------------------------|
G||-2222222222222222--5555555555555555--5555555555555555--33333333XXXXX-//-|
D||-3333333333333333--6666666666666666--5555555555555555--33333333XXXXX-//-| 2x
A||-3333333333333333--6666666666666666--3333333333333333--11111111XXXXX-//-|
E||-1111111111111111--4444444444444444----------------------------XXXXX-//-|

Bridge:

Claudio:

e||---------------------------------------------------------------------------|
B||---------------------------------------------------------------------------|
G||-------------------5555555555555555--------------------55555555--33333333--|
D||-6666666666666666--5555555555555555--6666666666666666--55555555--33333333--| 2x
A||-6666666666666666--3333333333333333--6666666666666666--33333333--11111111--|
E||-4444444444444444--------------------4444444444444444----------------------|

Travis:

(Note: Not Sure About This Part..)

e||-3-----7-----3-----7-----4p3-----8-----10-----11-----13-----13-11-10-8---|
B||---4-----4-----4-----4-------4-----8------8------8------8----------------|
G||-----5-----5-----5-----5-------5-----8------8------8------8--------------|
D||-------------------------------------------------------------------------| 4x
A||-------------------------------------------------------------------------|
E||-------------------------------------------------------------------------|

e||----------------------------|
B||----------------------------|
G||----10--12--8-----8--10-----|
D||-8-------------8---------8--| 2x
A||----------------------------|
E||----------------------------|

(Repeat Chorus and Bridge)

Last Chords

e||-----
B||-----
G||-----
D||-6~--
A||-6~--
E||-4~--


Please Rate and Comment for Corrections.. :D

            
            
Suggest correction
Creating personal tab
Creating personal tab
You can edit any tab online and save it as your Personal.

You can edit, replace or remove any tab part or add personal notes – all changes will be seen only by you.

Personal tabs can be accessed anytime from any device, even offline.
Learn more »
comments
print report bad tab
5 comments total. Showing first comments.
+4 reply
kbove0293 10 Oct 26, 2013 12:34 AM

Intro:
e||---------------------------------------------------------------|
B||---------------------------------------------------------------|
G||-3---0---0----5/0---0---0---8----7-----------7-----------------|
D||--------------------------------------10-----------10-----8----|
A||-3-----3-------------------------------------------------------|
E||--------------4-----4-----6-6-6-6-6-6-6--6-6-6-6-6-6--6-6-6----|

e||---------------------------------------------------------------|
B||---------------------------------------------------------------|
G||-3---0---0----5---0---0---8----7------------7------------------|
D||--------------------------------------10-----------10-----8----|
A||-3-----3-------------------------------------------------------|
E||--------------4-----4-----6-6-6-6-6-6-6--6-6-6-6-6-6--6-6-6----|

-2 reply
stevles 10 Jul 20, 2014 03:11 AM

Wow you guys have no idea..
Watch them live, do you see them strumming the **** out of the low E string during that part? I think not.

0 reply
Andyvie 10 Dec 05, 2014 09:05 AM

I believe the bridge is alternated between:

e||-3-----7-----3-----7-----4p3-----8-----10-----11-----11-----11-10-8----|
B||---4-----4-----4-----4-------4-----8------8------8------8------------11---|
G||-----5-----5-----5-----5-------5-----8------8------8------8--------------|
D||-------------------------------------------------------------------------| 4x
A||-------------------------------------------------------------------------|
E||-------------------------------------------------------------------------|

And:
e||-3-----7-----3-----7-----4p3-----8-----10-----11-----13-----13-11-10-8---|
B||---4-----4-----4-----4-------4-----8------8------8------8----------------|
G||-----5-----5-----5-----5-------5-----8------8------8------8--------------|
D||-------------------------------------------------------------------------| 4x
A||-------------------------------------------------------------------------|
E||-------------------------------------------------------------------------|

guest
You may want to rate the tab now too:
select rating
Wanna post a correction for this tab? Suggest correction