Oops, an error
Loading. Please wait.

Feathers bass

version 1
version 1

Whole song

Interactive

15,450 views 21 this week
2 commentsread comments
1 2 3 4 5
x 8
add to favorites
×
Save as Personal and add changes to this tab that will be seen only by you. Learn more ›
×
You can save this tab as Personal to edit and correct it or add notes. All changes will be seen only by you. Learn more »
launch autoscroll
font size
0
reset
guitar tuner
edit
Autoscroll
slow
fast
+/-
esc
set tempo
stop
Difficulty
intermediate
Artist: Coheed and Cambria
Song: Feathers
Album: No World For Tomorrow
Bassist: Michael Todd
Tuning: E-A-D-G
Tabbed by: johan_sunden@elitemail.org


Verse
00:14
|-----|-----------------------------|-------------------------------|
|-----|-7-6-----------9-------------|-7-6-----------7---------------|
|-----|-----7-----------7-----------|-----7-----------0---0-x-4-x-2-|
|16\--|-------0---0---------0---x-5-|-------5---5-------------------|


|-----------------------------|-------------------------------|
|-7-6-----------9-------------|-7-6-----------7---------------|
|-----7-----------7-----------|-----7-----------0---0-x-4-----|
|-------0---0---------0---x-5-|-------5---5---------------7\--|


|-------------------------------------------------------------|
|---------------9-------------|-7-6-----------7---------------|
|-----------------7-----------|-----7-----------0---0-x-4-x-2-|
|---0-----0---0-------0---x-5-|-------5---5-------------------|


|-----------------------------|-------------------------------|
|-7-6-----------9-------------|-7-6-----------7---------------|
|-----7-----------7-----------|-----7-----------0---0-x-4-----|
|-------0---0---------0---x-5-|-------5---5---------------7\--|


|-----------------------------|-------------------------------|
|-----------------------------|-7-6-----------7---------------|
|-2---------------7-----------|-----7-----------0---0-x-4-x-2-|
|---0-----0---0-0-----0---x-5-|-------5---5-------------------|


|-----------------------------|-------------------------------|
|-7-6-----------9-------------|-7-6-----------7---------------|
|-----7-----------7-----------|-----7-----------0---0-x-4-x-2-|
|-------0---0---------0---x-5-|-------5---5-------------------|


|-----------------------------|-------------------------------|
|-----------------------------|-7-6-----------7---------------|
|-2---------------7-----------|-----7-----------0---0-x-4-x-2-|
|---0-----0---0-0-----0---x-5-|-------5---5-------------------|
 
                              Bridge 01:09
|-----------------------------|-------------------------------|
|-7-6-----------9-------------|-7-6-----------9---7---6---4---|
|-----7-----------7-----------|-----7-0-0-0-0---0---0---0---0-|
|-------0---0---------0---x-5-|-------------------------------|


Chorus

|----------------------------------------------------------------|
|----------------------------------------------------------------|
|----------------------------------------------------------------|
|5-5-5-5-5-5-5-5-5-5-5-5-5-5-5-5-0-0-0-0-0-0-0-0-7-7-7-7-7-7-7-7-|


|------------------------------4---------------------------------|
|--------------------x-4-x-6-7-----------------------------------|
|--------x-4-x-6-x-7-------------7-7-7-7-7-7-7-7-----------------|
|x-5-x-7-----------------------------------------7-7-7-7-7-7-7-3-|


|----------------------------------------------------------------|
|----------------------------------------------------------------|
|----------------------------------------------------------------|
|5-5-5-5-5-5-5-5-5-5-5-5-5-5-5-5-0-0-0-0-0-0-0-0-7-7-7-7-7-7-7-7-|


|------------------------------4---------------------------------|
|--------------------x-4-x-6-7-----------------------------------|
|--------x-4-x-6-x-7-------------7~------------------------------|
|x-5-x-7---------------------------------------(5)7~---------16\-|


Verse 2
01:41
|-----------------------------|-------------------------------|
|-7-6-----------9-------------|-7-6-----------7---------------|
|-----7-----------7-----------|-----7-----------0---0-x-4-x-2-|
|-------0---0---------0---x-5-|-------5---5-------------------|


|-----------------------------|-------------------------------|
|-7-6-----------9-------------|-7-6-----------7---------------|
|-----7-----------7-----------|-----7-----------0---0-x-4-----|
|-------0---0---------0---x-5-|-------5---5---------------7\--|


|-------------------------------------------------------------|
|---------------9-------------|-7-6-----------7---------------|
|-----------------7-----------|-----7-----------0---0-x-4-x-2-|
|---0-----0---0-------0---x-5-|-------5---5-------------------|
  
                             Bridge
|-----------------------------|-------------------------------|
|-7-6-----------9-------------|-7-6-----------9---7---6---4---|
|-----7-----------7-----------|-----7-0-0-0-0---0---0---0---0-|
|-------0---0---------0---x-5-|-------------------------------|


Chorus 2
02:10
|----------------------------------------------------------------|
|----------------------------------------------------------------|
|----------------------------------------------------------------|
|5-5-5-5-5-5-5-5-5-5-5-5-5-5-5-5-0-0-0-0-0-0-0-0-7-7-7-7-7-7-7-7-|


|------------------------------4---------------------------------|
|--------------------x-4-x-6-7-----------------------------------|
|--------x-4-x-6-x-7-------------7-7-7-7-7-7-7-7---------------7-|
|x-5-x-7-----------------------------------------7-7-7-7-7-9-7---|


|----------------------------------------------------------------|
|----------------------------------------------------------------|
|----------------------------------------------------------------|
|5-5-5-5-5-5-5-5-5-5-5-5-5-5-5-5-0-0-0-0-0-0-0-0-7-7-7-7-7-7-7-7-|


|------------------------------4---------------------------------|
|--------------------x-4-x-6-7-------9---------------------------|
|--------x-4-x-6-x-7-------------7-7---7-7-7-7-7-----------------|
|x-5-x-7-----------------------------------------7-7-7-7-7-7-7-7-|


Variation
02:39                 					   S   S
|----------------------------------------------------------------|
|.---------------------------------------------------------------|
|.---------------------------------------------------------5---7-|
|8-8-8-8-8-8-8-8-8-8-8-8-8-x---7-5-5-5-5-5-5-5-5-5-5-5-5-5-------|


|----------------------------------------------------------------|
|---------------------------------------------------------------.|
|---------------------------------------------------------------.|
|0-0-0-0-0-0-0-0-0-0-0-0-0-0-0-0-2-2-2-2-2-2-2-2-2-2-2-2-2-2-2-2-|

03:08
|--------------------------------|---------------------------------|
|--------------------------------|---------------------------------|
|-7-----5-7-----7-----7----------|-5-------5-----5-----5-----------|
|-----7-------7-----x------------|-------5-----5-----x-------------|


|--------------------------------|---------------------------------|
|--------------------------------|---------------------------------|
|-3-------------3-----3----------|-2-------------------------------|
|-------------3-----x------------|---------5-------3-------2-------|


|--------------------------------|-----------------7h9p7-----------|
|--------------------------------|---------------7--------------7\-|
|-7-----5-7-----7-----7----------|-5---------5-7-------------------|
|-----7-------7-----x------------|---------------------------------|


|--------------------------------|---------------------------------|
|--------------------------------|---------------------------------|
|-3-------------3-----3----------|-2-------------------------------|
|-------------3-----x------------|---------5-------3-3-3-2-2-2---5-|


Rest until
03:44
|--------------------------------|---------------------------------|
|--------------------------------|-----------------9-9-9-9-9-9-9-9-|
|-7------------------------------|-7-7-7-7-7-7-7-7-----------------|
|(0)-----------------------------|---------------------------------|


Chorus 3/Outro

|----------------------------------------------------------------|
|----------------------------------------------------------------|
|----------------------------------------------------------------|
|5-5-5-5-5-5-5-5-5-5-5-5-5-5-5-5-0-0-0-0-0-0-0-0-7-7-7-7-7-7-7-7-|


|------------------------------4---------------------------------|
|--------------------x-4-x-6-7---------------------------9-9---9-|
|--------x-4-x-6-x-7-------------7-7-7-7-7-7-7-7-----9-9-----9---|
|x-5-x-7-----------------------------------------7-7-------------|


|----------------------------------------------------------------|
|----------------------------------------------------------------|
|----------------------------------------------------------------|
|5-5-5-5-5-5-5-5-5-5-5-5-5-5-5-5-0-0-0-0-0-0-0-0-7-7-7-7-7-7-7-7-|


|------------------------------4---------------------------------|
|--------------------x-4-x-6-7-------------------------999-------|
|--------x-4-x-6-x-7-------------7-7-7-7-7-7-9-7---999-----9-----|
|x-5-x-7-----------------------------------------7-----------7/9-|


|----------------------------------------------------------------|
|----------------------------------------------------------------|
|------------------------7---7-----------------------9-----------|
|5-5-5-5-5-5-5-5-5-5-5-5---5---5-0-0-0-0-0-0-4-5-7-7---7-7-9-7---|


|------------------------------4---------------------------------|
|--------------------x-4-x-6-7-------9-------------999-----999---|
|--------x-4-x-6-x-7-------------7-7---7-7-9-7---------999-----9-|
|x-5-x-7---------------------------------------9-7---------------|


|----------------------------------------------------------------|
|----------------------------------------------------------------|
|------------------------------------2---2-----------9-----------|
|5-5-5-5-5-5-5-5-5-5-5-5-5-5-5-7-0-0---0---0-4-5-7-7---7-9-7-5-7-|


|------------------------------4---------------------------------|
|--------------------x-4-x-6-7---------9---------------9---------|
|--------x-4-x-6-x-7-------------7-------7---9-------9-----9-----|
|x-5-x-7-----------------------------------------7-------------8-|

End

            
            
Suggest correction
Creating personal tab
Creating personal tab
You can edit any tab online and save it as your Personal.

You can edit, replace or remove any tab part or add personal notes – all changes will be seen only by you.

Personal tabs can be accessed anytime from any device, even offline.
Learn more »
comments
print report bad tab
2 comments total.
0 reply
SoftParade1967 522 Dec 10, 2007 04:05 PM

Fuckin PERFECT!!!

+1 reply
smalRaptor 41 Sep 18, 2010 02:45 AM

Spectacular tab, brother, saved me a lot of time.

guest
Wanna post a correction for this tab? Suggest correction