Oops, an error
Loading. Please wait.

Ghost tab

version 1
version 1

Whole song

Interactive

9,193 views 39 this week
3 commentsread comments
1 2 3 4 5
x 7
add to favorites
×
Save as Personal and add changes to this tab that will be seen only by you. Learn more ›
×
You can save this tab as Personal to edit and correct it or add notes. All changes will be seen only by you. Learn more »
launch autoscroll
font size
0
reset
how to read this tab
guitar tuner
edit
Autoscroll
slow
fast
+/-
esc
set tempo
stop
Author
Ghost - Coheed And Cambria
Tabbed by: Atticus01
Tuning: Standard

[Main riff]
e|----------------------------------------------------------------------------|
B|----------------------------------------------------------------------------|
G|----------------------------------------------------------------------------|
D|-------5-------5-------5-------5-------5-------5-------5-------5------------|
A|---3-------3-------3-------3-------3-------3-------3-------3----------------|
E|-5---5---5---5---5---5---5---5---1---1---1---1---1---1---1---1--------------|

[Intro riff]
e|------------------------|----------------------------------------------------|
B|---------------------8--|----------------------------------------------------|
G|---9-----------9---9----|-X3 THEN---7--9b------------------------------------|
D|-7---7\5--5--7---7------|----------------------------------------------------|
A|------------------------|----------------------------------------------------|
E|------------------------|----------------------------------------------------|

0:43
e|----------------------------------------------------------------------------|
B|----------------------------------------------------------------------------|
G|-----5---5---5-7----------5---5---5-7---------------------------------------|
D|-5h7---7---7-----7----5h7---7---7-----5-------------------------------------|
A|----------------------------------------------------------------------------|
E|----------------------------------------------------------------------------|

1:18 - 2:00
e|-------------------------------------------------------------------|--------|
B|-5-----5-----5----8-----8-----8-----5-----6-----6-----5-----5------|--------|
G|---5-----5-----5----5-----5-----5-----5-----5-----5-----5-----5----|-REPEAT-|
D|-----5-----5----------5-----5-----5-----5-----5-----5-----5-----5--|--------|
A|-------------------------------------------------------------------|--------|
E|-------------------------------------------------------------------|--------|

************************************

| b  Bend
| \  Slide down
| h  Hammer-on

************************************

            
            
Suggest correction
Creating personal tab
Creating personal tab
You can edit any tab online and save it as your Personal.

You can edit, replace or remove any tab part or add personal notes – all changes will be seen only by you.

Personal tabs can be accessed anytime from any device, even offline.
Learn more »
comments
print report bad tab
3 comments total.
+1 reply
KBI2113 201 Oct 25, 2015 04:30 PM

Awesome job man!!! 5 stars.

My only critique is I find it easier on the main riff to play an open G instead of the 5th fret of the D string. A lot less stretching to do.

Still, an amazing foundation tab!

0 reply
Billy Wilkins 20 Oct 31, 2015 08:10 AM, edited at 12:11 pm

Yea I was about to say that, my pinky fingers hurts a bit after playing it the way it says on the tab, open G is a lot easier for both the chords, either way the tab is pretty great

-1 reply
Guns N' Chains 273 May 17, 2016 03:51 PM

I think the intro sounds a bit like this...this is how I play and hear it at least...

e|------------------------------|
B|----------------------------8-|
G|---9-----------0-----9---9----|
D|-7---7-5-0---0---0-7---7------|
A|-----------0------------------| x 3
E|------------------------------|

Other than that, I think this tab is pretty damn good and accurate..

guest
You may want to rate the tab now too:
select rating
Wanna post a correction for this tab? Suggest correction