Oops, an error
Loading. Please wait.

Gravemakers And Gunslingers bass

version 2
version 2

Whole song

Interactive

4,261 views 1 this week
1 commentread comment
1 2 3 4 5
x 4
add to favorites
×
Save as Personal and add changes to this tab that will be seen only by you. Learn more ›
×
You can save this tab as Personal to edit and correct it or add notes. All changes will be seen only by you. Learn more »
launch autoscroll
font size
0
reset
guitar tuner
edit
Autoscroll
slow
fast
+/-
esc
set tempo
stop
Gravemakers and Gunslingers
Coheed and Cambria
Bass


G|----------------------------------------------------------------------|
D|---------------------3------------------------------------------------|
A|--3(h)5-5-55-----3-5---5--------------3(h)5-5-55----------------11-00-|
D|-------------------------03(h)55-33-----------------------55-33-------|

G|------------------5------------------------------------------5--------------------|
D|--------------575---7530----3----------------------------575--7530----------------|
A|--3(h)5-5-55-------------35---5--------------3(h)5-5-55--------------------11-00--|
D|---------------------------------03(h)55-33--------------------------55-33--------|


G|--------------------------------------------------------------5---------------|
D|-----------------------------3----------------------------575--7530-----------|
A|--3(h)5-5-55-------------3-5---5--------------3(h)5-5-55----------------11-00-|
D|-------------00000000------------03(h)55-33-----------------------55-33-------|


G|----------------------------------------------------------------------------------------|
D|-----------------------------3-------------------------------0(p)-----0(p)--------------|
A|--3(h)5-5-55-------------3-5---5--------------3(h)5-5-55--------------------------11-00-|
D|-------------00000000------------03(h)55-33---------------0(s)-----0(s)------55-33------|

G|-----------------------------------------------------------------------------|
D|-----------------------------------------------------------------------------|
A|--------------5------3-5--55555555555---------------5------5-3---------------|
D|--88\-780-787---878---------------------88\-780-787---787------000000000000--|

G|-------------------------------------------------------------------------------------|
D|----5-3-2-----5-3-2-----3-1-0-----3-1-0-----5-3-2-----5-3-2-----3-1-0----------------|
A|--33-3-3-3--33-3-3-3--11-1-1-1--11-1-1-1--33-3-3-3--33-3-3-3--11-1-1-1---------------|
D|------------------------------------------------------------------------3-03035------|

G|--------------------------------------------------------------5---------------|
D|-----------------------------3----------------------------575--7530-----------|
A|--3(h)5-5-55-------------3-5---5--------------3(h)5-5-55----------------11-00-|
D|-------------00000000------------03(h)55-33-----------------------55-33-------|


G|----------------------------------------------------------------------------------------|
D|-----------------------------3-------------------------------0(p)----0(p)---------------|
A|--3(h)5-5-55-------------3-5---5--------------3(h)5-5-55--------------------------11-00-|
D|-------------00000000------------03(h)55-33---------------0(s)-----0(s)------55-33------|

G|-----------------------------------------------------------------------------|
D|-----------------------------------------------------------------------------|
A|--------------5------3-5--55555555555---------------5------5-3---------------|
D|--88\-780-787---878---------------------88\-780-787---787------000000000000--|


G|-------------------------------------------|\
D|--------------------------------------3----| \
A|------------------------------------35-5---| / x2
D|-0~00-00-3-0-00-035-0-00-00-3-0-000--------|/

G|------------------------------------|\
D|------------------------------------| \
A|----------------3-20------3-20------| / x4
D|-00-0-0-0-0-0-0------3-0-------3-0--|/

G|--------------------|\
D|--------------------| \
A|--------------------| /x4
D|-11111112-000000000-|/

G|------|\
D|------| \
A|1-0---| /x4 
D|----3-|/

G|------------------5------------------------------------------5--------------------|\
D|--------------575---7530----3----------------------------575--7530----------------| \
A|--3(h)5-5-55-------------35---5--------------3(h)5-5-55--------------------11-00--| /x2
D|---------------------------------03(h)55-33--------------------------55-33--------|/

G|-----------------------------------------------------------------------------|
D|-----------------------------------------------------------------------------|
A|--------------5------3-5--55555555555---------------5------5-3---------------|
D|--88\-780-787---878---------------------88\-780-787---787------000000000000--|


G|-------------------------------------------------------------------------------------|\
D|----5-3-2-----5-3-2-----3-1-0-----3-1-0-----5-3-2-----5-3-2-----3-1-0----------------| \
A|--33-3-3-3--33-3-3-3--11-1-1-1--11-1-1-1--33-3-3-3--33-3-3-3--11-1-1-1---------------| /x2
D|------------------------------------------------------------------------3-03035------|/

~[END]~
G|-------------------------------------|
D|-------------------------------------|
A|-3(h)5-55-------------11-00-3(h)5-55-|
D|----------------55-33----------------|



KEY!

(h) -> Hammer on
(S) -> Slap
(P) -> Pluck
 \  -> Slide
 ~  -> Hold Note

            
            
Suggest correction
Creating personal tab
Creating personal tab
You can edit any tab online and save it as your Personal.

You can edit, replace or remove any tab part or add personal notes – all changes will be seen only by you.

Personal tabs can be accessed anytime from any device, even offline.
Learn more »
comments
print report bad tab
1 comment total.
0 reply
Felkara 596 Aug 15, 2008 07:19 AM

It's good, but it's not quite all there. Check out the 5-star bass tab mistitled Gravemakers and Gunslungers for a more comprehensive tab.

guest
You may want to rate the tab now too:
select rating
Wanna post a correction for this tab? Suggest correction