Oops, an error
Loading. Please wait.

Here To Mars tab

version 1
version 1

Whole song

Interactive

Video

4,582 views 27 this week
3 commentsread comments
1 2 3 4 5
x 5
add to favorites
×
Save as Personal and add changes to this tab that will be seen only by you. Learn more ›
×
You can save this tab as Personal to edit and correct it or add notes. All changes will be seen only by you. Learn more »
launch autoscroll
font size
0
reset
how to read this tab
guitar tuner
edit
Autoscroll
slow
fast
+/-
esc
set tempo
stop
Author
Difficulty
-------------------------------------------------------------------------------
                             HERE TO MARS - Coheed and Cambria
-------------------------------------------------------------------------------
Tabbed by: Greem_Lemon  
Credit to nicholasp248 for contributing to this tab

Tuning: Standard
Both guitars distorted
Both Guitars have different effects, I haven't fully figured them out. Will come.

If you have any suggestions about anything let me know.



Intro
  P.M.-------------------------------------------------------------------|
e|------------------------------------|----------------------------------| Gtr. 1
B|------------------------------------|----------------------------------|
G|------------------------------------|----------------------------------|
D|-----7-----7-------7-10---7-10---7--|----------------------------------|
A|-5-8---5-8---5-8-8------8------8----|---5-8---5-8---5---5-8---5-8---5--|
E|------------------------------------|-6-----6-----6---6-----6-----6----|
   
  P.M.-------------------------------------------------------------------|
e|------------------------------------|----------------------------------|
B|------------------------------------|----------------------------------|
G|------------------------------------|----------------------------------|
D|-----7-----7-------7-10---7-10---7--|----------------------------------|
A|-5-8---5-8---5-8-8------8------8----|---5-8---5-8---5---5-8---5-8---5--|
E|------------------------------------|-6-----6-----6---6-----6-----6----|
 |
 |
e|-------5----------------------------|-------5--------------------------|
B|-----6-------6-8--8/10\8---8/10\6---|-----6-------6-8--8/10\8---8/10\6-| Gtr. 2
G|---7-------7------------------------|---7-------7----------------------|
D|------------------------------------|----------------------------------|
A|------------------------------------|----------------------------------|
E|------------------------------------|----------------------------------|


Verse 1
 P.M.--------------------------------------------------------------------|
e|------------------------------------|----------------------------------|
B|------------------------------------|----------------------------------|
G|------------------------------------|----------------------------------|
D|-----7-----7-------7-10---7-10---7--|----------------------------------|
A|-5-8---5-8---5-8-8------8------8----|---5-8---5-8---5---5-8---5-8---5--|
E|------------------------------------|-6-----6-----6---6-----6-----6----|
   
  P.M.-------------------------------------------------------------------|
e|------------------------------------|----------------------------------|
B|------------------------------------|----------------------------------|
G|------------------------------------|----------------------------------|
D|-----7-----7-------7-10---7-10---7--|----------------------------------|
A|-5-8---5-8---5-8-8------8------8----|---5-8---5-8---5---5-8---5-8---5--|
E|------------------------------------|-6-----6-----6---6-----6-----6----|
 |
 |
B|-13------------17------------------|-----------------------------------|
e|-----------------------------------|-----------------------------------|
G|-----------------------------------|---7-10----------------------------|
D|-----------------------------------|-8---------------------------------|
A|-----------------------------------|-----------------------------------|
E|-----------------------------------|-----------------------------------|

  P.M.-------------------------------------------------------------------|
e|------------------------------------|----------------------------------|
B|------------------------------------|----------------------------------|
G|------------------------------------|----------------------------------|
D|-----7-----7-------7-10---7-10---7--|----------------------------------|
A|-5-8---5-8---5-8-8------8------8----|---5-8---5-8---5---5-8---5-8---5--|
E|------------------------------------|-6-----6-----6---6-----6-----6----|
 |
 |
e|-10--------------8-----------------|-10--------------------------------|
B|-----------------------------------|------------------10---------------|
G|-----------------------------------|-----------------------------------|
D|-----------------------------------|-----------------------------------|
A|-----------------------------------|-----------------------------------|
E|-----------------------------------|-----------------------------------|

  P.M.-------------------------------------------------------------------|
e|------------------------------------|----------------------------------|
B|------------------------------------|----------------------------------|
G|------------------------------------|----------------------------------|
D|-----7-----7-------7-10---7-10---7--|----------------------------------|
A|-5-8---5-8---5-8-8------8------8----|---5-8---5-8---5---5-8---5-8---5--|
E|------------------------------------|-6-----6-----6---6-----6-----6----|
 |
 |
e|-13--------------17----------------|-----------------------------------|
B|-----------------------------------|-----------------------------------|
G|-----------------------------------|---7-10----------------------------|
D|-----------------------------------|-8---------------------------------|
A|-----------------------------------|-----------------------------------|
E|-----------------------------------|-----------------------------------|

  P.M.---------------------------------------------------------|
e|------------------------------|------------------------------|
B|------------------------------|------------------------------|
G|------------------------------|------------------------------|
D|------------------------------|------------------------------|
A|-8-8--8-8-8--8-8-8--8-8-8--8--|-8-8--8-8-8--8-8-8--8-8-8--8--|
E|-6-6--6-6-6--6-6-6--6-6-6--6--|-6-6--6-6-6--6-6-6--6-6-6--6--|

  P.M.----------------------------------------------------------------|
e|-------------------------------------|------------------------------|
B|-------------------------------------|------------------------------|
G|-------------------------------------|------------------------------|  x2
D|--7-7--7-7-7--7-10-10--10-10-10--10--|------------------------------|
A|--5-5--5-5-5--5-8--8---8--8--8---8---|-8-8--8-8-8--8-8-8--8-8-8--8--|
E|-------------------------------------|-6-6--6-6-6--6-6-6--6-6-6--6--|


***While Gtr. 1 is doing that rhythm figure Gtr. 2 plays this riff.
e|--------------------------------------------------|
B|--------------------------------------------------|
G|----14-------------14-------14-------------14-----|
D|-12----12-15-14-12----12-12----12-15-14-12----12--|  x8
A|--------------------------------------------------|
E|--------------------------------------------------|

  Hold-----|---------|
e|---------|---------| Gtr. 1
B|---------|---------|
G|---------|---------|
D|-5-------|-8-------|
A|-5-------|-8-------|
E|-3-------|-6-------|
   1 2 3 4   1 2 3 4 

Chorus
e|----------------------------------|----------------------------------|
B|----------------------------------|----------------------------------|
G|----------------------------------|----------------------------------|
D|-3-3-3-3-3-3-3-3-3-3-3-3-3-3-3-3--|-3-3-3-3-3-3-3-3-3-3-3-3-3-3-3-3--|
A|-3-3-3-3-3-3-3-3-3-3-3-3-3-3-3-3--|-3-3-3-3-3-3-3-3-3-3-3-3-3-3-3-3--|
E|-1-1-1-1-1-1-1-1-1-1-1-1-1-1-1-1--|-1-1-1-1-1-1-1-1-1-1-1-1-1-1-1-1--|
 |
 |
e|----------------------------------|----------------------------------|
B|-10t-------------8t---------------|-6t--------------8t---------------|
G|----------------------------------|----------------------------------|
D|----------------------------------|----------------------------------|
A|----------------------------------|----------------------------------|
E|----------------------------------|----------------------------------|


e|----------------------------------|----------------------------------|
B|----------------------------------|----------------------------------|
G|-5-5-5-5-5-5-5-5-5-5-5-5-5-5-5-5--|-5-5-5-5-5-5-5-5-5-5-5-5-5-5-5-5--|
D|-5-5-5-5-5-5-5-5-5-5-5-5-5-5-5-5--|-5-5-5-5-5-5-5-5-5-5-5-5-5-5-5-5--|
A|-3-3-3-3-3-3-3-3-3-3-3-3-3-3-3-3--|-3-3-3-3-3-3-3-3-3-3-3-3-3-3-3-3--|
E|----------------------------------|----------------------------------|
 |
 |
e|----------------------------------|----------------------------------|
B|-6t--------------8t---------------|-6t--------------8t---------------|
G|----------------------------------|----------------------------------|
D|----------------------------------|----------------------------------|
A|----------------------------------|----------------------------------|
E|----------------------------------|----------------------------------|

e|----------------------------------|----------------------------------|
B|----------------------------------|----------------------------------|
G|-7-7-7-7-7-7-7-7-7-7-7-7-7-7-7-7--|-7-7-7-7-7-7-7-7-7-7-7-7-7-7-7-7--|
D|-7-7-7-7-7-7-7-7-7-7-7-7-7-7-7-7--|-7-7-7-7-7-7-7-7-7-7-7-7-7-7-7-7--|
A|-5-5-5-5-5-5-5-5-5-5-5-5-5-5-5-5--|-5-5-5-5-5-5-5-5-5-5-5-5-5-5-5-5--|
E|----------------------------------|----------------------------------|
 |
 |
e|----------------------------------|----------------------------------|
B|-8t--------------10t--------------|-6t-------------8t----------------|
G|----------------------------------|----------------------------------|
D|----------------------------------|----------------------------------|
A|----------------------------------|----------------------------------|
E|----------------------------------|----------------------------------|

e|----------------------------------|----------------------------------|
B|----------------------------------|----------------------------------|
G|----------------------------------|----------------------------------|
D|-8-8-8-8-8-8-8-8-8-8-8-8-8-8-8-8--|-8-8-8-8-8-8-8-8-8-8-8-8-8-8-8-8--|
A|-8-8-8-8-8-8-8-8-8-8-8-8-8-8-8-8--|-8-8-8-8-8-8-8-8-8-8-8-8-8-8-8-8--|
E|-6-6-6-6-6-6-6-6-6-6-6-6-6-6-6-6--|-6-6-6-6-6-6-6-6-6-6-6-6-6-6-6-6--|
 |
 |
e|----------------------------------|----------------------------------|
B|-6t--------------8t---------------|-10t------------------------------|
G|----------------------------------|----------------------------------|
D|----------------------------------|----------------------------------|
A|----------------------------------|----------------------------------|
E|----------------------------------|----------------------------------|


Interlude
  P.M.-------------------------------------------------------------------|
e|------------------------------------|----------------------------------|
B|------------------------------------|----------------------------------|
G|------------------------------------|----------------------------------|
D|-----7-----7-------7-10---7-10---7--|----------------------------------|
A|-5-8---5-8---5-8-8------8------8----|---5-8---5-8---5---5-8---5-8---5--|
E|------------------------------------|-6-----6-----6---6-----6-----6----|
 |
 |
e|------------------------------------|-----17---------------------------|
B|------------------------------------|--------18--18-15------15---------|
G|------------------------------------|--------------------17----14------|
D|------------------------------------|-----------------------------15---|
A|------------------------------------|----------------------------------|
E|------------------------------------|----------------------------------|


Verse 2
  P.M.-------------------------------------------------------------------|
e|------------------------------------|----------------------------------|
B|------------------------------------|----------------------------------|
G|------------------------------------|----------------------------------|
D|-----7-----7-------7-10---7-10---7--|----------------------------------|
A|-5-8---5-8---5-8-8------8------8----|---5-8---5-8---5---5-8---5-8---5--|
E|------------------------------------|-6-----6-----6---6-----6-----6----|
 |
 |
B|-17------------20------------------|-15---------------17---------------|
e|-----------------------------------|-----------------------------------|
G|-----------------------------------|-----------------------------------|
D|-----------------------------------|-----------------------------------|
A|-----------------------------------|-----------------------------------|
E|-----------------------------------|-----------------------------------|

  P.M.-------------------------------------------------------------------|
e|------------------------------------|----------------------------------|
B|------------------------------------|----------------------------------|
G|------------------------------------|----------------------------------|
D|-----7-----7-------7-10---7-10---7--|----------------------------------|
A|-5-8---5-8---5-8-8------8------8----|---5-8---5-8---5---5-8---5-8---5--|
E|------------------------------------|-6-----6-----6---6-----6-----6----|
 |
 |
e|-13--------------17----------------|-----------------------------------|
B|-----------------------------------|-----------------------------------|
G|-----------------------------------|---7-10----------------------------|
D|-----------------------------------|-8---------------------------------|
A|-----------------------------------|-----------------------------------|
E|-----------------------------------|-----------------------------------|


Chorus
*Same as before

Bridge
  Hold----------------|-------------------|--------------------|
e|---------|----------|---------|---------|---------|----------|
B|---------|----------|---------|---------|---------|----------|
G|---------|----------|-5-------|-(5)-----|-7-------|-(7)------|
D|-3-------|-(3)------|-5-------|-(5)-----|-7-------|-(7)------|
A|-3-------|-(3)------|-3-------|-(3)-----|-5-------|-(5)------|
E|-1-------|-(1)------|---------|---------|---------|----------|
   1 2 3 4    1 2 3 4   1 2 3 4   1 2 3 4   1 2 3 4    1 2 3 4 
            P.M.--------------|
e|---------|--------------------|
B|---------|--------------------|
G|---------|--------------------|
D|-8-------|--------------------|
A|-8-------|-88888888888888888--|
E|-6-------|-66666666666666666--|
   1 2 3 4                   *Don't let last note ring


Guitar Solo
*Gtr. 1 plays same rhythm figure from the chorus.

e|-13-----|-17---20---|-15----|-17---20---|-13-----|-17---20---| Gtr. 2
B|--------|-----------|-------|-----------|--------|-----------|
G|--------|-----------|-------|-----------|--------|-----------|
D|--------|-----------|-------|-----------|--------|-----------|
A|--------|-----------|-------|-----------|--------|-----------|
E|--------|-----------|-------|-----------|--------|-----------|
  
e|-18-17----18-17----18-17----18-17----18-17------|
B|-------18-------18-------18-------18-------18---|
G|------------------------------------------------|
D|------------------------------------------------|
A|------------------------------------------------|
E|------------------------------------------------|

e|-17-15----17----15-17----17-15----18-17--18-17--|
B|-------18----18-------18-------18-----18--------|
G|------------------------------------------------|
D|------------------------------------------------|
A|------------------------------------------------|
E|------------------------------------------------|

Chorus
*Same as before but played twice.

**Play last bar of chorus second time like this for Gtr. 2 
e|----------------------------------|
B|-10t--------------11t-------------|
G|----------------------------------|
D|----------------------------------|
A|----------------------------------|
E|----------------------------------|

End on this
e|------|
B|------|
G|------|
D|-3----|
A|-3----|
E|-1----|
 |
 |
e|------|
B|-13---|
G|------|
D|------|
A|------|
E|------|


************************************

| P.M. Palm Mute
| t    tremolo
| /    slide up
| \    slide down
| h    hammer-on
| p    pull-off
| ~    vibrato
| +    harmonic
| x    Mute note
| b    Bend
| pb   Pre-bend
| br   Bend release
| pbr  Pre-bend release
| brb  Bend release bend

************************************

            
            
Suggest correction
Creating personal tab
Creating personal tab
You can edit any tab online and save it as your Personal.

You can edit, replace or remove any tab part or add personal notes – all changes will be seen only by you.

Personal tabs can be accessed anytime from any device, even offline.
Learn more »
comments
print report bad tab
3 comments total. show 1 bad comment
+2 reply
B.C.RichRulz 331 Dec 10, 2016 09:30 PM

great tab!

+1 reply
tje210tje 31 May 14, 2017 01:19 PM

great tab thanks!

guest
You may want to rate the tab now too:
select rating
Wanna post a correction for this tab? Suggest correction