Oops, an error
Loading. Please wait.

Here To Mars tab

version 2
version 2

Whole song

Interactive

Video

340 views 1 this week
1 commentread comment
1 2 3 4 5
2 more votes to show rating
add to favorites
×
Save as Personal and add changes to this tab that will be seen only by you. Learn more ›
×
You can save this tab as Personal to edit and correct it or add notes. All changes will be seen only by you. Learn more »
launch autoscroll
font size
0
reset
how to read this tab
guitar tuner
edit
Autoscroll
slow
fast
+/-
esc
set tempo
stop
Author
[INTRO/VERSE]

  PM------------------------------------------------------------------------|
e|--------------------|-----------------|-----------------|-----------------|
B|--------------------|-----------------|-----------------|-----------------|
G|--------------------|-----5-----5-----|-----------------|-----------------|
D|------7------7------|---7-----7-----7-|-----3-----3-----|-----3-----3-----| X6
A|----8------8------8-|-8-----8-----8---|---5-----5-----5-|---5-----5-----5-|
E|-10-----10-----10---|-----------------|-6-----6-----6---|-6-----6-----6---|

[PRE-CHORUS]

 PM--------------------------------------|
e|---------|---------|---------|---------|
B|---------|---------|---------|---------|
G|---------|---------|-7-7-5-5-|---------|
D|-8-8-8-8-|-8-8-8-8-|-7-7-5-5-|-8-8-8-8-| X2
A|-8-8-8-8-|-8-8-8-8-|-5-5-3-3-|-8-8-8-8-|
E|-6-6-6-6-|-6-6-6-6-|---------|-6-6-6-6-|

[CHORUS]

e|---------|---------|
B|---------|---------|
G|---------|---------|
D|-5-------|-8-------|
A|-5-------|-8-------|
E|-3-------|-6-------|

e|---------|---------|---------|---------|
B|---------|---------|---------|---------|
G|---------|-5-5-5-5-|-7-7-7-7-|---------|
D|-3-3-3-3-|-5-5-5-5-|-7-7-7-7-|-8-8-8-8-|
A|-3-3-3-3-|-3-3-3-3-|-5-5-5-5-|-8-8-8-8-|
E|-1-1-1-1-|---------|---------|-6-6-6-6-|


[LYRICS]

Hey stranger
Been a long while since I've loved you or anything
How the times have changed
Distorted
A figure set in trend, emotionless
And the words lose all their mean
 goodbye, lost and long forgotten)

Discouraged might be the term you choose
When you look
Looking for an excuse
My company has gone mute
Since listening isn't my strongest suit

I'm leaving you with this here, okay?
Over and out there, honey it's in the stars
You're my everything from here to mars
And every word I say I truly mean
Dear dar-ling I hope I'm being clear'cause
There's no one on earth that can be my universe

Understood give me a second chance I know I could
Be a better half

It's in the stars
And you're my everything form here to mars
And every word I say I truly mean
Dear darling, I hope i'm being clear cause there's no one like you on earth
That can be my universe

Pardon me I think I'm going
Out of my head and into the worst
A world without your verse
A world without you hurts
Please... I'm sorry

 I will never let you go
 I will never let you go
 I will never let you go
 
It's in the stars
And you're my everything from here to mars
And every word I say I truly mean
Dear darling I hope I'm being clear cause there's no one like you on earth
That can me my burning star
And you're my everything from here to mars
And every word I mean-every word I mean
Dear darling i hope I'm being clear cause there's no one on earth that can
Be my universe

            
            
Suggest correction
Creating personal tab
Creating personal tab
You can edit any tab online and save it as your Personal.

You can edit, replace or remove any tab part or add personal notes – all changes will be seen only by you.

Personal tabs can be accessed anytime from any device, even offline.
Learn more »
Give kudos to tab author, rate the tab!
1 2 3 4 5
comments
print report bad tab
1 comment total.
0 reply
Zeds_Dead 81 Mar 10, 2016 03:12 AM

For some reason, my tab was mutilated by UG when it was approved. Please see below for my notes etc on the timing.
Coheed And Cambria - Here To Mars - The Color Before The Sun

Standard tuning

Transcribed by Dan Cottrell

As with my previous TCBTS tab, some parts have been omitted but enough of the song is present to perform a suitable rendition.

[INTRO/VERSE]

e|--------------------|-----------------|-----------------|-----------------|
B|--------------------|-----------------|-----------------|-----------------|
G|--------------------|-----5-----5-----|-----------------|-----------------|
D|------7------7------|---7-----7-----7-|-----3-----3-----|-----3-----3-----| X6
A|----8------8------8-|-8-----8-----8---|---5-----5-----5-|---5-----5-----5-|
E|-10-----10-----10---|-----------------|-6-----6-----6---|-6-----6-----6---|
PM--X-X-X--X-X-X--X-X-|-X-X-X-X-X-X-X-X-|-X-X-X-X-X-X-X-X-|-X-X-X-X-X-X-X-X-|

[PRE-CHORUS]

This is only representative of the time for each chord, listen to the strumming pattern in the song to get the changes right.

e|---------|---------|---------|---------|
B|---------|---------|---------|---------|
G|---------|---------|-7-7-5-5-|---------|
D|-8-8-8-8-|-8-8-8-8-|-7-7-5-5-|-8-8-8-8-| X2
A|-8-8-8-8-|-8-8-8-8-|-5-5-3-3-|-8-8-8-8-|
E|-6-6-6-6-|-6-6-6-6-|---------|-6-6-6-6-|
PM-XXXXXXXX|XXXXXXXXX|XXXXXXXXX|XXXXXXXX-|

[CHORUS]

Let chords ring out for 1&2, listen to the strumming pattern in the song for 3-6.

1 2
e|---------|---------|
B|---------|---------|
G|---------|---------| 1 "I'm leaving you..."
D|-5-------|-8-------| 2 "Over and out..."
A|-5-------|-8-------|
E|-3-------|-6-------|

3 4 5 6
e|---------|---------|---------|---------|
B|---------|---------|---------|---------| 3 "...Stars..."
G|---------|-5-5-5-5-|-7-7-7-7-|---------| 4 "...Mars..."
D|-3-3-3-3-|-5-5-5-5-|-7-7-7-7-|-8-8-8-8-| 5 "...Mean..."
A|-3-3-3-3-|-3-3-3-3-|-5-5-5-5-|-8-8-8-8-| 6 "...No-one..."
E|-1-1-1-1-|---------|---------|-6-6-6-6-|

[INTRO/VERSE] X4

[CHORUS] Only parts 3-6

[BRIDGE] Same chords as Chorus Pt.3-6 X2; Let Ring first time through, then as you would play the chorus

[CHORUS] Pts.3-6 X2 Let final Pt.6 ring out.

End.

guest
You may want to rate the tab now too:
select rating
Wanna post a correction for this tab? Suggest correction