Oops, an error
Loading. Please wait.

Here We Are Juggernaut tab

version 2
version 2

Whole song

Interactive

22,725 views 18 this week
4 commentsread comments
1 2 3 4 5
x 6
add to favorites
×
Save as Personal and add changes to this tab that will be seen only by you. Learn more ›
×
You can save this tab as Personal to edit and correct it or add notes. All changes will be seen only by you. Learn more »
launch autoscroll
font size
0
reset
how to read this tab
guitar tuner
edit
Autoscroll
slow
fast
+/-
esc
set tempo
stop
Author
Difficulty
intermediate
[Intro]
(Claudio)
e|-----------14~---------------------14~--------------------14~--------------------14~----------|
B|------12~-----12~------------12~------12~-----------12~------12~-----------12~------12~-------|
G|---11~---11~------11~-----11~---11~------11~-----11~---11~------11~-----11~---11~------11~----|
D|-0~------------------0~-0~------------------0~-0~------------------0~-0~------------------0~--|
A|----------------------------------------------------------------------------------------------|
E|----------------------------------------------------------------------------------------------|

e|------------14~----------14~----------------------------14~-------------------14~-------------|
B|------12~------12~----------12~--------12~--------12~------12~----------12~------12~----------|
G|---11~---11~------11~----------11~--11~--------11~---11~------11~----11~---11~------11~-------|
D|---------------------0~------------------------------------------0~--------------------0~-----|
A|-0~--------------------0~---------0~------0~-0~--------------------0~-------------------------|
E|----------------------------------------------------------------------------------------------|

e|-----------14~---------------------14~--------------------14~--------------------14~----------|
B|------12~-----12~------------12~------12~-----------12~------12~-----------12~------12~-------|
G|---11~---11~------11~-----11~---11~------11~-----11~---11~------11~-----11~---11~------11~----|
D|-0~------------------0~-0~------------------0~-0~------------------0~-0~------------------0~--|
A|----------------------------------------------------------------------------------------------|
E|----------------------------------------------------------------------------------------------|

e|-----------14~------------------14~------------------14~----------------0~--------------------|
B|------12~-----12~----------12~-----12~----------12~-----12~---------------0~------------------|
G|---11~-----------11~----11~-----------11~----11~-----------11~------0~------0~----------------|
D|--------------------0~-------------------0~-------------------0~--0~----------0~--------------|
A|-0~------0~-----------0~------0~-----------0~------0~-----------0~----0~----------------------|
E|----------------------------------------------------------------------------------------------|

[Pre-Verse] (x2)
(Claudio)
e|---------------------------------------------------------------------------|
B|---------------------------------------------------------------------------|
G|---------------------------------------------------------------------------|
D|---------------------------------------------------------------------------|
A|---2---4---4/7---4---2---4---0~--0~--2---4---4/7---4---2---4---0~--0~------|
E|-0~--0~--0~----0~--0~--0~--0~--0~--0~--0~--0~----0~--0~--0~--0~--0~--------|

(Travis)
e|---------------------------------------------------------------------------|
B|-9-----10p9-----9---------------------9-----10p9-----9--------12-----------|
G|------------9--------9------9----9---------------9------9------------------|
D|-----9--------9--------9-----------9------9--------9------9--------9-------|
A|-7------------------------------------7------------------------------------|
E|---------------------------------------------------------------------------|

[Verse 1]
(Claudio)
e|---------------------------------------------------------------------------|
B|---------------------------------------------------------------------------|
G|---------------------------------------------------------------------------|
D|---------------------------------------------------------------------------|
A|---2---4---4/7---4---2---4---0~--0~--2---4---4/7---4---2---4---0~--0~------|
E|-0~--0~--0~----0~--0~--0~--0~--0~--0~--0~--0~----0~--0~--0~--0~--0~--------|

e|---------------------------------------------------------------------------|
B|---------0~---------------0~-----------------------------------------------|
G|-----4~----4~---------4~----4~---------------------------------------------|
D|---5~--------5~-----5~--------5~-------------------------------------------|
A|-0~----0~------0~-0~----0~------0~--2---4---4/7---4---2---4---0~--0~-------|
E|----------------------------------0~--0~--0~----0~--0~--0~--0~--0~---------|

e|---------------------------------------------------------------------------|
B|---------------------------------------------------------------------------|
G|---------------------------------------------------------------------------|
D|---------------------------------------------------------------------------|
A|---2---4---4/7---4---2---4---0~--0~--2---4---4/7---4---2---4---0~--0~------|
E|-0~--0~--0~----0~--0~--0~--0~--0~--0~--0~--0~----0~--0~--0~--0~--0~--------|

(Travis) 
(Over Claudios E-based main riff)
e|---------------|
B|-9--10---------| Travis essentially picks that E chord shape at random,
G|-9-------------| sometimes adding that additional note (10th fret, B string).
D|-9-------------|
A|-7-------------|
E|---------------|

(Travis) (Over Claudios A-based riff)
e|-------4-----------4-------------------------|
B|-5-------5---5-------5---5-------------------|
G|---6-------6---6-------6---6-----------------|
D|-----6-----------6-----------6---------------|
A|-4-----------4-------------------------------|
E|---------------------------------------------|

[Pre-Chorus 1]
(Claudio)
e|---------------------------------------------------------------------------|
B|---------0~--------------0~--------------0~--------------0~----------------|
G|-----4~----4~--------4~----4~--------4~----4~--------4~----4~--------------|
D|---5~--------5~----5~--------5~----5~--------5~----5~--------5~------------|
A|-0~----0~------0-0~----0~------0-0~----0~------0-0~----0~------------------|
E|-----------------------------------------------------------------5---------|

(Travis)
e|-------4---------------4---------------4---------------4-----4-------------|
B|-5-------5-------5-------5-------5-------5-------5-------5-----------------|
G|---6-------6---6---6-------6---6---6-------6---6---6-------6---------------|
D|-----6-------6-------6-------6-------6-------6-------6---------------------|
A|-4---------------4---------------4---------------4-------------------------|
E|---------------------------------------------------------------------------|

[Chorus 1]
(Claudio)
e|---------------------------------------------------------------------------|
B|-----------0~--------------0~--------------0~--------------0~--------------|
G|-------------4~--------------4~--------------4~--------------4~------------|
D|-------0~------0~------0~------0~------0~------0~------0~------0~----------|
A|-----0~--0~----------0~--0~----------0~--0~----------0~--0~----------------|
E|---5~------------5-5~------------5-5~------------5-5~------------0---------|

e|---------------------------------------------------------------------------|
B|-----------0~--------------0~--------------0~--------------0~--------------|
G|-------------0~--------------0~--------------0~--------------0~------------|
D|-------4~------4~------4~------4~------4~------4~------4~------4~----------|
A|-----2~--2~----------2~--2~----------2~--4~----------2~--2~----------------|
E|---0~------------0-0~------------0-0~------------0-0~------------5---------|

e|---------------------------------------------------------------------------|
B|-----------0~--------------0~--------------0~--------------0~--------------|
G|-------------4~--------------4~--------------4~--------------4~------------|
D|-------0~------0~------0~------0~------0~------0~------0~------0~----------|
A|-----0~--0~----------0~--0~----------0~--0~----------0~--0~----------------|
E|---5~------------5-5~------------5-5~------------5-5~------------5---------|

(Travis)
e|---------------------------------------------------------------------------|
B|---------------------------------------------------------------------------|
G|-13~---13~---13~---13~---13-14---13---13~---13~---13~---13~---13-14--13----|
D|----16~---16~---16~---16~----------------16~---16~---16~---16~----------14-|
A|---------------------------------------------------------------------------|
E|---------------------------------------------------------------------------|

e|---------------------------------------------------------------------------|
B|---------------------------------------------------------------------------|
G|---------------------------------------------------------------------------|
D|-16~---16~---16~---16~---14~---14~---14~---14~---16~---16~---16~---16~-----|
A|----14~---14~---14~---14~---14~---14~---14~---14~---16~---16~---16~---16~--|
E|---------------------------------------------------------------------------|

e|------------------|
B|------------------|
G|------------------|
D|-14~---14~---14~--|
A|----14~---14~-----|
E|------------------|

e|---------------------------------------------------------------------------|
B|---------------------------------------------------------------------------|
G|-13~---13~---13~---13~---13-14-13-----13~---13~---13~---13~---13-14--13----|
D|----16~---16~---16~---16~---------14-----16~---16~---16~---16~----------14-|
A|---------------------------------------------------------------------------|
E|---------------------------------------------------------------------------|

[Chorus 2]
(Claudio)
(Travis)
e|-------4------4------4-------------4---------------4-----------------------|
B|-5-------5------5------5-----5-------6-------5-------6---------------------|
G|---6-------6------6--------6---6-------6---6---6-------6-------------------|
D|-----6-------------------6-------6-------6-------6-------------------------|
A|-4---------------------------4---------------4-----------------------------|
E|---------------------------------------------------------------------------|

e|---------------------------------------------------------------------------|
B|---------------------------------------------------------------------------|
G|---------------------------------------------------------------------------|
D|-16~---16~---16~---16~---14~---14~---14~---14~---16~---16~---16~---16~-----|
A|----14~---14~---14~---14~---14~---14~---14~---14~---16~---16~---16~---16~--|
E|---------------------------------------------------------------------------|

e|------------------|
B|------------------|
G|------------------|
D|-14~---14~---14~--|
A|----14~---14~-----|
E|------------------|

e|---------------------------------------------------------------------------|
B|---------------------------------------------------------------------------|
G|-13~---13~---13~---13~---13-14-13-----13~---13~---13~---13~---13-14--13----|
D|----16~---16~---16~---16~---------14-----16~---16~---16~---16~----------14-|
A|---------------------------------------------------------------------------|
E|---------------------------------------------------------------------------|

[Bridge 1]
(Claudio)
e|--------------------------------------------------0~-----------------------|
B|---------0~---------------0~--------------0~--------0~----0~---------------|
G|-----0~----0~---------0~----0~--------0~----0~--------0~----0~-------------|
D|---4~--4~----4~-----4~--4~----4~----4~--4~----4~--------4~----4~-----------|
A|-4~------------4~-4~------------0-2~------------2~--------------2~---------|
E|---------------------------------------------------------------------------|

e|---------------------------------------------------------------------------|
B|---------0~------5v~------5v~------4v~------4v~------2v~------2v~----------|
G|-----0~----0~-------0~-------0~-------0~-------0~-------0~-------0~--------|
D|---0~--0~----0~-------0~-------0~-------0~-------0~-------0~-------0~------|
A|-0~------------0~-------0~-------0~-------0~-------0~-------0~-------0~----|
E|---------------------------------------------------------------------------|

e|---------------------------------------------------------------------------|
B|---------0~---------------0~--------------0~---------------0~--------------|
G|-----0~----0~---------0~----0~--------0~----0~---------0~----0~---0~-------|
D|---4~--4~----4~-----4~--4~----4~----4~--4~----4~-----4~--4~----4~----------|
A|-4~------------4~-4~------------0-2~------------2~-2~----------------------|
E|---------------------------------------------------------------------------|

e|---------0~----------------------------------------------------------------|
B|-----------0~----5v~------5v~------4v~------4v~---------2v~------2v~-------|
G|-----0~------0~-----0~-------0~-------0~-------0~----------0~-------0~-----|
D|---0~--0~-------------0~-------0~-------0~-------0~----------0~-------0~---|
A|-0~------------0~-------0~-------0~-------0~-------0~-0~-------0~----------|
E|---------------------------------------------------------------------------|

e|-----------------0~------------------------------------0~------------------|
B|---------0~--------0~------0~------------0~----------------0~--------------|
G|-----0~----0~--------0~------0~------0~----0~------0~----------0~----------|
D|---4~--4~----4~--------4~------4~--4~--2~----4~----------------------------|
A|-4~------------4~--------4~------2~------------2-2~--2~--2~--2~------------|
E|---------------------------------------------------------------------------|

e|---------0~----------------------------------------------------------------|
B|-----------0~----5v~------5v~------4v~------4v~---------2v~------0~--------|
G|-----0~------0~-----0~-------0~-------0~-------0~----------0~------0~------|
D|---0~--0~-------------0~-------0~-------0~-------0~----------0~------0~----|
A|-0~------------0~-------0~-------0~-------0~-------0~-0~-------0~----------|
E|---------------------------------------------------------------------------|

(Travis)
e|---------5/7-5-5-5-4-4~----------5/7-5-5-5-4-4~---0------------------------|
B|---------7/9-7-7-7-5-5~----------7/9-7-7-7-5-5~---2------------------------|
G|---------------------------------------------------------------------------|
D|---------------------------------------------------------------------------|
A|---------------------------------------------------------------------------|
E|---------------------------------------------------------------------------|

e|-0~--------------------------------------------0-0-0-0--0~-----------------|
B|-2~----------------------5p2-0-2---0-2-5~------5-5-5-5--2~-----------------|
G|---------------------------------------------------------------------------|
D|---------------------------------------------------------------------------|
A|---------------------------------------------------------------------------|
E|---------------------------------------------------------------------------|

e|---------5/7-5-5-5-4-4~----------5/7-5-5-5-4-4~---0------------------------|
B|---------7/9-7-7-7-5-5~----------7/9-7-7-7-5-5~---2------------------------|
G|---------------------------------------------------------------------------|
D|---------------------------------------------------------------------------|
A|---------------------------------------------------------------------------|
E|---------------------------------------------------------------------------|

e|-0~--------------0-0-0-0-0-0-0-0-0-0-0-0-0-0-0-0-0-0-0-0-0-0-0-0-0---------|
B|-2~--------------5-5-5-5-5-5-5-5-4-4-4-4-4-4-4-4-2-2-2-2-2-2-2-2-2---------|
G|---------------------------------------------------------------------------|
D|---------------------------------------------------------------------------|
A|---------------------------------------------------------------------------|
E|---------------------------------------------------------------------------|

e|---------5/7-5-5-5-4-4~----------5/7-5-5-5-4-5-7--0----------0-------------|
B|---------7/9-7-7-7-5-5~----------7/9-7-7-7-5-7-9--2------------2p----------|
G|---------------------------------------------------------------------------|
D|---------------------------------------------------------------------------|
A|---------------------------------------------------------------------------|
E|---------------------------------------------------------------------------|

e|---------0-------0-------0-------0-------0---------------------------------|
B|-0-2p0-2---2p0-2---2p0-2---2p0-2---2p0-2---2p0-----------------------------|
G|---------------------------------------------------------------------------|
D|---------------------------------------------------------------------------|
A|---------------------------------------------------------------------------|
E|---------------------------------------------------------------------------|

[Bridge 2]
(Claudio)
e|---------------------------------------------------------------------------|
B|---------0~---------------0~--------------0~--------------0~---------------|
G|-----0~----0~---------0~----0~--------6~----6~--------6~----6~-------------|
D|---4~--4~----4~-----4~--4~----4~----7~--------7~----7~--------7~-----------|
A|-4~------------4~-4~------------4-0~----0~------0-0~----0~------0~---------|
E|---------------------------------------------------------------------------|

e|---------------------------------------------------------------------------|
B|---------0~---------------0~--------------0~--------------0~---------------|
G|-----0~----0~---------0~----0~--------6~----6~--------6~----6~-------------|
D|---4~--4~----4~-----4~--4~----4~----7~--------7~----7~--------7~-----------|
A|-4~------------4~-4~------------4-0~----0~------0-0~----0~------0~---------|
E|---------------------------------------------------------------------------|

e|---------------------------------------------------------------------------|
B|---------0~------0~------0~--------------0~--------------0~----------------|
G|-----0~----0~------0~------0~--------6~----6~--------6~----6~--------------|
D|---4~--4~----4~------4~------4~----7~--------7~----7~--------7~------------|
A|-4~------------4~------4~------4-0~----0~------0-0~----0~------0~----------|
E|---------------------------------------------------------------------------|

e|---------------------------------------------------------------------------|
B|---------0~---------------0~--------------0~------------0~-----------------|
G|-----0~----0~---------0~----0~--------6~----6~------6~------6~-------------|
D|---4~--4~----4~-----4~--4~----4~----7~--------7~---------------------------|
A|-4~------------4~-4~------------4-0~----0~------0-0~--0~--0~--0~-----------|
E|-----------------------------------------------------------------5---------|

(Travis)
e|---7~----7-----------------------------------------------------------------|
B|--5~-------5------------10~--10~--10~--10~--10~--10~--12-------------------|
G|-6~----------6-4--6--------9~---9~---9~---9~---9~---9~---------------------|
D|---------------------------------------------------------------------------|
A|---------------------------------------------------------------------------|
E|---------------------------------------------------------------------------|

e|---7~-7-----7--------------------------------------------------------------|
B|--5~----5-----5---------10~--10~--10~--10~--10~---12~----------------------|
G|-6~-------6-----6-4h6------9~---9~---9~---9~---9~-9-~----------------------|
D|---------------------------------------------------------------------------|
A|---------------------------------------------------------------------------|
E|---------------------------------------------------------------------------|

e|---7~-7----------7---------------------------------------------------------|
B|--5~----5-----6~---5----10~--10~--10~--10~--10~---10h12--------------------|
G|-6~-------6----------6-----9~---9~---9~---9~---9~--------------------------|
D|---------------------------------------------------------------------------|
A|---------------------------------------------------------------------------|
E|---------------------------------------------------------------------------|

e|---4~-7--------------------------------------------------------------------|
B|--5~----5---------------10---10---10---10-12--12--12-----------------------|
G|-6~-------6--4~6--6--6-----9----9----9-------------------------------------|
D|---------------------------------------------------------------------------|
A|---------------------------------------------------------------------------|
E|---------------------------------------------------------------------------|

[Outro] (x3)
(Claudio)
e|---------------------------------------------------------------------------|
B|-----------0~--------------0~--------------0~--------------0~--------------|
G|-------------4~--------------4~--------------4~--------------4~------------|
D|-------0~------0~------0~------0~------0~------0~------0~------0~----------|
A|-----0~--0~----------0~--0~----------0~--0~----------0~--0~----------------|
E|---5~------------5-5~------------5-5~------------5-5~-------------5--------|

(Travis)
e|---------------------------------------------------------------------------|
B|-9-----9-----------12-----12-------10-----10-------9-----9-----------------|
G|---9-------9----------9-------9-------9-------9------9-------9-------------|
D|-----9-------9----------9-------9-------9-------9------9-------9-----------|
A|-7-----------------7---------------7---------------7-----------------------|
E|---------------------------------------------------------------------------|

(Claudio)
e|-----------------0~-----------|
B|---------0~------0~-----------|
G|-----------0~-----------------|
D|-----4~------4~---------------|
A|---2~--2~------2~-------------|
E|-0~---------------------------|

(Travis)
e|------------------------------|
B|----9~------------------------|
G|---9~-------------------------|
D|--9~--------------------------|
A|-7~---------------------------|
E|------------------------------|



************************************

| ~  Vibrato
| /  Slide up
| p  Pull-off
| h  Hammer-on

************************************

            
            
Suggest correction
Creating personal tab
Creating personal tab
You can edit any tab online and save it as your Personal.

You can edit, replace or remove any tab part or add personal notes – all changes will be seen only by you.

Personal tabs can be accessed anytime from any device, even offline.
Learn more »
comments
print report bad tab
4 comments total. Showing first comments.
0 reply
3lacksabbath81 563 Apr 21, 2010 08:15 AM

I was there! You can see me in the beginning of the video haa, sweet tab.
Thanks for this.

+1 reply
Butthead 40 Jun 27, 2010 06:48 PM

That tuning broke my d string :(

0 reply
Char2000 10 May 03, 2012 03:05 PM

Broke my string too. Twice :(

guest
You may want to rate the tab now too:
select rating
Wanna post a correction for this tab? Suggest correction