Oops, an error
Loading. Please wait.
We have an official Key Entity Extraction Iii Vic The Butcher tab made by UG professional guitarists. Check out the tab »
×

Key Entity Extraction Iii Vic The Butcher bass

1,905 views 1 this week
no commentswrite comment
1 2 3 4 5
3 more votes to show rating
add to favorites
×
Save as Personal and add changes to this tab that will be seen only by you. Learn more ›
×
You can save this tab as Personal to edit and correct it or add notes. All changes will be seen only by you. Learn more »
launch autoscroll
font size
0
reset
guitar tuner
edit
Autoscroll
slow
fast
+/-
esc
set tempo
stop
Key Entity Extraction III: Vic the Butcher
Coheed & Cambria
The Afterman: Ascension

Tabbed By : fender4string
Tuning: Drop D


Listen carefully to the song for the timing as the fills during the chorus
and second halves of verses are a bit tricky (in terms of timing) and 
difficult to indicate via tablature.

Enjoy people.  This one's a fun one!


Verse 1

"You made this harder..."
G|---------------------------------------------------------------------------|
D|--------------------------------------------------------------------2-3-2--|
A|-----------------3-3---5--/5-7-8p7h8------------------3-3---5-/3-5-------3-|
D|-0--0---12\----0-----0----------------0--0---12\----0-----0----------------|

"You flashed your colors at me way prematurely..."
G|---------------------------------------|
D|---------------------------------------|
A|-------3-5--5-------------3-5--5-------|
D|-000--0---00-0--232--000-0---00-0--232-|

"Now I know what you ought to..."
G|---------------------------------------|
D|------------------------------------33-|
A|-5-----5-3-55---5-3-55---5-3-555-333---|
D|--00----0----0---0----0---0------------|


Chorus

"Reset the system, screaming..."
G|---------------------------------------|
D|------3--------3-------3---/5--5-33223-|
A|-11111-01-11111-01-1111-01-------------|
D|---------------------------------------|

"Hang your secrets, hang 'em up, hang 'em up now!"
G|----------------------------------------|
D|----------------------------------------|
A|---------3-5--3-5-------------3-5-3-3-5-|
D|-00000000---0----03-2-00000000-----0----|

"These sitting ducks in season..."
G|---------------------------------------|
D|------3--------3-------3---/5--5-33223-|
A|-11111-01-11111-01-1111-01-------------|
D|---------------------------------------|

"Hang your secrets, hang 'em up, hang 'em up now!"
G|----------------------------------------|
D|----------------------------------------|
A|------3-5----3-5--------5-5-3--5-5-3----|
D|-00000---00-------032-00-0---00-0---032-|


Bridge

"The truth will cut you down to pieces"
G|-------------------------------------------------|
D|-------------------------------------------------|
A|-------------------------------------------------|
D|-11---00---11---00--1-0---11---00---11---00--1-2-|

"184, let's burn it down!"
G|--------------------------------|
D|--------------------------------|
A|-11111111111111115511111100-----|
D|---------------------------3322-|

G|-------------------------------------------------|
D|-------------------------------------------------|
A|-------------------------------------------------|
D|-11---00---11---00--1-0---11---00---11---00--1-2-|

G|------------------------------------|
D|------------------------------------|
A|-1111111111111111551111110----0-----|
D|--------------------------3-5---3-2-|


"Verse 2"

"I listen to them chuckle..."
G|---------------------------------------------------------------------------|
D|-----------------------------------------------------------------2-3-2-----|
A|-------------------------------------------------------------3-5-------5-3-|
D|-0--0-000--0-000--0--0-000--0-000--12\-0-000-0-000--0--0-000---------------|

"You think I care for..."
G|---------------------------------------|
D|---------------------------------------|
A|-------3-5--5-------------3-5--5-------|
D|-000--0---00-0--232--000-0---00-0--232-|

When I want nothing to do..."
G|--------------------------------------------|
D|-------------------------------3-2------2-3-|
A|-5-----5-3-55---5-3-55---5-3-5----5-3-5-----|
D|--00----0----0---0----0---0-----------------|


Chorus 2

"We've got your number written..."
G|---------------------------------------|
D|------3--------3-------3---/5--5-33223-|
A|-11111-01-11111-01-1111-01-------------|
D|---------------------------------------|

"Hang your secrets, hang 'em up, hang 'em up now!"
G|----------------------------------------|
D|----------------------------------------|
A|---------3-5--3-5-------------3-5-3-3-5-|
D|-00000000---0----03-2-00000000-----0----|

"These sitting ducks in season..."
G|---------------------------------------|
D|------3--------3-------3---/5--5-33223-|
A|-11111-01-11111-01-1111-01-------------|
D|---------------------------------------|

"Hang your secrets, hang 'em up, hang 'em up now!"
G|----------------------------------------|
D|----------------------------------------|
A|------3-5----3-5--------5-5-3--5-5-3----|
D|-00000---00-------032-00-0---00-0---032-|


Bridge

"The truth will cut you down to pieces"
G|-------------------------------------------------|
D|-------------------------------------------------|
A|-------------------------------------------------|
D|-11---00---11---00--1-0---11---00---11---00--1-2-|

"184, let's burn it down!"
G|------------------------------------|
D|------------------------------------|
A|-1111111111111111551111110----0-----|
D|--------------------------3-5---3-2-|

G|-------------------------------------------------|
D|-------------------------------------------------|
A|-------------------------------------------------|
D|-11---00---11---00--1-0---11---00---11---00--1-2-|

G|----------------------------------|
D|----------------------------------|
A|-1111111111111111551111110---0----|
D|--------------------------3-5-3-2-|


Breakdown

G|-----------------------------------------------------|
D|-----------------------------------------------------|
A|-555-555(triplet)-555-555(trip)-555-1111111111111111-|
D|-----------------------------------------------------|

G|-----------------------------------------------------|
D|-----------------------------------------------------|
A|-555-555(triplet)-555-555(trip)-555-11111111100------|
D|-----------------------------------------------55332-|

G|-------------------------------------------------------------------------|
D|--------------3333-------------------------3333-----------------------5--|
A|-55555555-3333----11111111----0000-55555555----3333-11111111-1-0---1-1-0-|
D|--------------------------5555----------------------------------2-3------|

G|-------------------------------------------------------------------------|
D|--------------3333-------------------------3333-----------------------5--|
A|-55555555-3333----11111111----0000-55555555----3333-11111111-1-0---1-1-0-|
D|--------------------------5555----------------------------------2-3------|


Bridge

"The truth will cut you down to pieces"
G|-------------------------------------------------|
D|-------------------------------------------------|
A|-------------------------------------------------|
D|-11---00---11---00--1-0---11---00---11---00--1-2-|

"184, let's burn it down!"
G|------------------------------------|
D|------------------------------------|
A|-1111111111111111551111110----0-----|
D|--------------------------3-5---3-2-|

G|-------------------------------------------------|
D|-------------------------------------------------|
A|-------------------------------------------------|
D|-11---00---11---00--1-0---11---00---11---00--1-2-|

G|----------------------------------|
D|----------------------------------|
A|-1111111111111111551111110---0----|
D|--------------------------3-5-3-2-|


Outro

"Hang your secrets, hang 'em up, hang 'em up now!"
G|-------------------------------------|
D|--------3-----------------3----------|
A|------3---1------0------3---1------0-|
D|-0-------------5---0-------------5---|

"Hang your secrets, hang 'em up, hang 'em up now!"
G|-------------------------------------|
D|--------3-----------------3----------|
A|------3---1------0------3---1------0-|
D|-0-------------5---0-------------5---|

G|-----------------------|
D|-----------------------|
A|-----------------------|
D|-0---------------------|



| /  slide up
| \  slide down
| h  hammer-on
| p  pull-off
| ~  vibrato
| +  harmonic
| x  Mute note
===============================================================================

            
            
Suggest correction
Creating personal tab
Creating personal tab
You can edit any tab online and save it as your Personal.

You can edit, replace or remove any tab part or add personal notes – all changes will be seen only by you.

Personal tabs can be accessed anytime from any device, even offline.
Learn more »
Give kudos to tab author, rate the tab!
1 2 3 4 5
comments
print report bad tab
guest
You may want to rate the tab now too:
select rating
Wanna post a correction for this tab? Suggest correction