Oops, an error
Loading. Please wait.

Ten Speed Of Gods Blood And Burial bass

version 3
version 3

Whole song

Interactive

1,946 views 1 this week
2 commentsread comments
1 2 3 4 5
x 3
add to favorites
×
Save as Personal and add changes to this tab that will be seen only by you. Learn more ›
×
You can save this tab as Personal to edit and correct it or add notes. All changes will be seen only by you. Learn more »
launch autoscroll
font size
0
reset
guitar tuner
backing track
0:00
0:00
edit
Autoscroll
slow
fast
+/-
esc
set tempo
stop
Author
Difficulty
-------------------------------------------------------------------------------
	Ten Speed (In God's Blood And Burial)  - Coheed And Cambria
-------------------------------------------------------------------------------

Tabbed By : ME!
e-mail: swisdude@hotmail.co.uk

Tuning:Drop all strings down one fret

  
I am confident that his tab is 100% correct. Have fun with it. It really is a wonderful fun bassline. ENJOY!
|-----|------------|--------------|-----------------|------------------|
|-----|------------|--------------|-----------------|------------------|
|---0-|-(0)--------|-(0)--------0-|---0---0---0---0-|---0---0-2-2-2-0--|
|-----|------------|--------------|-----------------|------------------|


 
|-----------------|-----------------|-----------------|-----------------||
|-----------------|-----------------|---7-7-----------|---7-5-----------||
|---0-0---0---0---|-0---0---2-2-2-0-|---------0---0---|-0-----8-7-5-----||
|-----------------|-----------------|-----------------|-------------8-7-||


 Verse
 
|-----------------|-----------------|-----------------|-----------------|
|---7-------------|-----------------|-----------------|-----------------|
|-----0---0---0---|-0---0---2-2-2-0-|---0-0---0---0---|-0---0---2-2-2-0-|
|-----------------|-----------------|-----------------|-----------------|



|-----------------|-----------------|----------------|------------0-2-|
|-----------------|-----------------|---------3--5-3-|-2--3---0-3-----|
|---0-0---0---0---|-0---0---2-2-2-0-|---0-2-0--------|------3---------|
|-----------------|-----------------|----------------|----------------|



|-----------------|-----------------|-----------------|-----------------|
|-----------------|-----------------|-----------------|-----------------|
|---0-0---0---0---|-0---0---2-2-2-0-|---0-0---0---0---|-0---0---2-2-2-0-|
|-----------------|-----------------|-----------------|-----------------|


|-----------------|-----------------|-----------------|-----------------||
|-----------------|-----------------|-----------------|-------0---------||
|---0-0---0---0---|-0---0---2-2-2-0-|---0-0---0---0---|-0-0-2---3-2-2-2-||
|-----------------|-----------------|-----------------|-----------------||


 Chorus
 |-----------------|-----------------|------------------|----------------|
|---------2-------|-3-2-----3-2---0-|-(0)-0---0-0------|----------------|
|-------3---3---3-|-------3-----3---|----------------0-|-0----0---3-----|
|-1-1-------------|-----------------|------------------|--------------1-|



|-------------------|-----------------|-----------------|-----------------|
|-----------2-------|-3-2-----3-2---0-|-0-0-0-0-0-------|-----------------|
|---------3---3---3-|-------3-----3---|-------------0-0-|-0-0-0-0-0-3-----|
|-(1)-1-------------|-----------------|-----------------|---------------1-|


  
|-------------------|-----------------|------------------|----------------|
|-----------2-------|-3-2-----3-2---0-|-(0)-0---0-0------|----------------|
|---------3---3---3-|-------3-----3---|----------------0-|-0----0---3-----|
|-(1)-1-------------|-----------------|------------------|--------------1-|


  
|-------------------|-----------------|-----------------|-----------------||
|-----------2-------|-3-2-----3-2---0-|-0-0-0-0-0-------|-----------------||
|---------3---3---3-|-------3-----3---|-------------0-0-|-0-0-0-0-0-3---0-||
|-(1)-1-------------|-----------------|-----------------|-----------------||


 Pre-Verse
  
|------------|--------------|-----------------|-----------------||
|------------|------------7-|-----------------|-----------------||
|-(0)--------|-(0)----------|---0---0---0---0-|---0---0-2-2-2-0-||
|------------|--------------|-----------------|-----------------||


 Verse

|-----------------|-----------------|-----------------|-----------------|
|-----------------|-----------------|-----------------|-----------------|
|---0-0---0---0---|-0---0---2-2-2-0-|---0-0---0---0-0-|-0---0---2-2-2-0-|
|-----------------|-----------------|-----------------|-----------------|



|-----------------|-----------------|----------------|------------0-2-|
|-----------------|-----------------|---------3--5-3-|-2--3---0-3-----|
|---0-0---0---0---|-0---0---2-2-2-0-|---0-2-0--------|------3---------|
|-----------------|-----------------|----------------|----------------|



|-----------------|-----------------|-----------------|-----------------|
|-----------------|-----------------|-----------------|-----------------|
|---0-0---0---0---|-0---0---2-2-2-0-|---0-0---0---0---|-0---0---2-2-2-0-|
|-----------------|-----------------|-----------------|-----------------|


|-----------------|-----------------|-----------------|-----------------||
|---7-------------|-----------------|-----------------|-------0---------||
|-----0---0---0---|-0---0---2-2-2-0-|---0-0---0---0---|-0-0-2---3-2-2-2-||
|-----------------|-----------------|-----------------|-----------------||


 Chorus
  
|-----------------|-----------------|------------------|----------------|
|---------2-------|-3-2-----3-2---0-|-(0)-0---0-0------|----------------|
|-------3---3---3-|-------3-----3---|----------------0-|-0----0---3-----|
|-1-1-------------|-----------------|------------------|--------------1-|


  
|-------------------|-----------------|-----------------|-----------------|
|-----------2-------|-3-2-----3-2---0-|-0-0-0-0-0-------|-----------------|
|---------3---3---3-|-------3-----3---|-------------0-0-|-0-0-0-0-0-3-----|
|-(1)-1-------------|-----------------|-----------------|---------------1-|



|-------------------|-----------------|------------------|---------------|
|-----------2-------|-3-2-----3-2---0-|-(0)-0---0-0------|---------------|
|---------3---3---3-|-------3-----3---|----------------0-|-0----0--3-----|
|-(1)-1-------------|-----------------|------------------|-------------1-|



|-----------------|-----------------|-------------------|-----------------||
|---------2-------|-3-2-----3-2---0-|-(0)-0---0-0-------|-----------------||
|-------3---3---3-|-------3-----3---|---------------0-0-|-0-0-0-0---------||
|-1-1-------------|-----------------|-------------------|-----------3---3-||


 Guitar Solo
  
|-----------------|-----------------|------------------|----------------|
|---------4-------|-5-4-----5-4---2-|-(2)-2---2-2------|----------------|
|-------5---5---5-|-------5-----5---|----------------2-|-2----2--5------|
|-3-3-------------|-----------------|------------------|-------------3--|


 
|-----------------|-----------------|------------------|-----------------|
|---------4-------|-5-4-----5-4---2-|-(2)-2---2-2------|-----------------|
|-------5---5---5-|-------5-----5---|----------------2-|-2-2-2-2--5------|
|-3-3-------------|-----------------|------------------|--------------3--|



|-----------------|-----------------|----------------|----------------|
|---------4-------|-5-4-----5-4---2-|-2-2---2-2------|----------------|
|-------5---5---5-|-------5-----5---|--------------2-|-2----2--5------|
|-3-3-------------|-----------------|----------------|-------------3--|


 
|-----------------|-----------------|-----------------|------------------||
|---------4-------|-5-4-----5-4---2-|-2-2-2-2-2-------|------------------||
|-------5---5---5-|-------5-----5---|-------------2-2-|-2-2-2-2-2-5------||
|-3-3-------------|-----------------|-----------------|---------------1--||


 Interlude
 
|----------------|-----------------|-----------------|------------------|
|----------------|-----------------|-----------------|------------------|
|----------------|-----------------|-----------------|------------------|
|----1---1---1---|---1---1---1-3h5-|-3---3---3---3---|---3---3---3-5\---|


 
|-----------------|-----------------|-----------------|-----------------|
|-----------------|-----------------|-----------------|-----------------|
|-----------------|-----------------|-----5-----------|-------5-3-2---3-|
|-1---1---1---1---|---1---1---1-3h5-|-3-------3---3---|---3-3-------5---|


 
|-----------------|-----------------|-----------------|-----------------|
|-----------------|-----------------|-----------------|-----------------|
|-----3---------3-|-------3---------|-----5-----5-----|-----5---3-2---3-|
|-1-1---1---1-1---|---1-1---1-1-3-5-|-3-3---3-3---3-3-|---3---3-----5---|



|-----------------|-----------------|-----------------|-----------------||
|-----------------|-----------------|-----------------|-----------------||
|-----3-----3---3-|-------3---------|-----5---5---5---|-----5---3-2---2-||
|-1-1---1-1---1---|---1-1---1-1-3-5-|-3-3---3---3---3-|---3---3-----5---||


 Bridge

|-----------------|----------------|-----------------|-----------------|
|-----------------|----------------|-----------------|-----------------|
|-----------------|---------7---7--|-------7-8-7-5-7-|---7-5-3---------|
|-8-8---8-8-8---8-|-8-8---8--------|-5-5-------------|---------7-5-5-3-|



|-----------------|-----------------|----------------|--------||
|-----------------|-----------------|----------------|--------||
|-----------------|-5---------0-----|---0-3----------|--------||
|-3-3---3-3-3---3-|---3---0-3---3-0-|-1-----1--1---3-|-(3)----||


 Out-Chorus
 
|------------|-------------|------------------|----------------|
|------------|-----------0-|-(0)-0---0-0------|----------------|
|------------|-------------|----------------0-|-0----0---3-----|
|-1----------|-------------|------------------|--------------1-|



|-------------------|-----------------|------------------|----------------|
|-----------2-------|-3-2-----3-2---0-|-(0)-0---0-0------|----------------|
|---------3---3---3-|-------3-----3---|----------------0-|-0----0---3-----|
|-(1)-1-------------|-----------------|------------------|--------------1-|


 
|-------------------|-----------------|------------------|----------------|
|-----------2-------|-3-2-----3-2---0-|-(0)-0---0-0------|----------------|
|---------3---3---3-|-------3-----3---|----------------0-|-0----0---3-----|
|-(1)-1-------------|-----------------|------------------|--------------1-|



|-------------------|-----------------|-----------------|-----------------|
|-----------2-------|-3-2-----3-2---0-|-0-0-0-0-0-------|-----------------|
|---------3---3---3-|-------3-----3---|-------------0-0-|-0-0-0-0-0-3-----|
|-(1)-1-------------|-----------------|-----------------|---------------1-|



|-------------------|-----------------|------------------|----------------|
|-----------2-------|-3-2-----3-2---0-|-(0)-0---0-0------|----------------|
|---------3---3---3-|-------3-----3---|----------------0-|-0----0---3-----|
|-(1)-1-------------|-----------------|------------------|--------------1-|


  
|-------------------|-----------------|-----------------|--------------|
|-----------2-------|-3-2-----3-2---0-|-0-0-0-0-0-------|--------------|
|---------3---3---3-|-------3-----3---|-------------0-0-|-0-0-0--------|
|-(1)-1-------------|-----------------|-----------------|------------1-|


  
|-----------------|-----------------|------------------|----------------|
|---------2-------|-3-2-----3-2---0-|-(0)-0---0-0------|----------------|
|-------3---3---3-|-------3-----3---|----------------0-|-0----0---3-----|
|-1-1-------------|-----------------|------------------|--------------1-|


  
|-----------------|-----------------|-----------------|--------------*|
|---------2-------|-3-2-----3-2---0-|-0-0-0-0-0-------|--------------*|
|-------3---3---3-|-------3-----3---|-------------0-0-|-0-0-0--------*|
|-1-1-------------|-----------------|-----------------|--------------*|




| /  slide up
| \  slide down
| h  hammer-on
| p  pull-off
| ~  vibrato
| +  harmonic
| x  Mute note
===============================================================================

            
            
Suggest correction
Creating personal tab
Creating personal tab
You can edit any tab online and save it as your Personal.

You can edit, replace or remove any tab part or add personal notes – all changes will be seen only by you.

Personal tabs can be accessed anytime from any device, even offline.
Learn more »
Give kudos to tab author, rate the tab!
1 2 3 4 5
comments
print report bad tab
2 comments total.
+1 reply
chikinpie1 73 Jan 16, 2007 05:10 PM

This is bad.
The only thing you even came close to getting right was the chorus, and even that you got wrong.

0 reply
SoftParade1967 522 Aug 30, 2008 02:32 PM

what are you talking about? this is awesome!

guest
You may want to rate the tab now too:
select rating
Wanna post a correction for this tab? Suggest correction