Oops, an error
Loading. Please wait.

The End Complete Ii Radio Bye Bye intro tab

version 1
version 1

Intro

Whole song

Interactive

3,993 views 1 this week
4 commentsread comments
1 2 3 4 5
x 7
add to favorites
×
Save as Personal and add changes to this tab that will be seen only by you. Learn more ›
×
You can save this tab as Personal to edit and correct it or add notes. All changes will be seen only by you. Learn more »
launch autoscroll
font size
0
reset
how to read this tab
guitar tuner
edit
Autoscroll
slow
fast
+/-
esc
set tempo
stop
Artist: Coheed and Cambria
Album: Good Apollo, I'm Burning Star IV, Vol. 2: No World For Tomorrow
Song Title: The End Complete II: Radio Bye Bye
Tab by Ben Prout

Drop D Tuning (DADGBe)

Intro
e----------------------------------------------------------------------|
B----------------------------------------------------------------------|
G------------------------------------------4h5p4------------4h5p4------|
D---3--3-----0h2---3--3-----0h2p0--7--7------------7--7----------------|
A---3--3-0h3----3--3--3-0h3--------7--7-5h7--------7--7--5h7-----------|
D---3--3-----------3--3------------7--7------------7--7----------------|


e----------------------------------------------------------------------|
B----------------------------------------------------------------------|
G----------------------------------------------------------------------|
D---3--3-----0h2---3--3-----0h2p0--7--7--12-10-9------------12-10-9----|
A---3--3-0h3----3--3--3-0h3--------7--7----------10--10--10---------10-|
D---3--3-----------3--3------------7--7--------------------------------|


            
            
Suggest correction
Creating personal tab
Creating personal tab
You can edit any tab online and save it as your Personal.

You can edit, replace or remove any tab part or add personal notes – all changes will be seen only by you.

Personal tabs can be accessed anytime from any device, even offline.
Learn more »
comments
print report bad tab
4 comments total. Showing first comments.
0 reply
Herlehy 51 Nov 07, 2007 06:39 PM

im pretty sure this song is in Standard, the only songs in this album that are drop-d is NWFT and Grave&Guns

0 reply
blcklabel92 73 Nov 21, 2007 06:44 AM

and the reaping!

0 reply
Ongeboren 52 Dec 07, 2007 09:27 PM

Yeah, I agree. Its in standard, thats how I've been playing it any ways

guest
Wanna post a correction for this tab? Suggest correction