Oops, an error
Loading. Please wait.

The End Complete Iv The Road And The Damned tab

version 1
version 1

Whole song

Interactive

1,913 views 3 this week
3 commentsread comments
1 2 3 4 5
1 last vote to show rating
add to favorites
×
Save as Personal and add changes to this tab that will be seen only by you. Learn more ›
×
You can save this tab as Personal to edit and correct it or add notes. All changes will be seen only by you. Learn more »
launch autoscroll
font size
0
reset
how to read this tab
guitar tuner
edit
Autoscroll
slow
fast
+/-
esc
set tempo
stop
Author
Difficulty
I'm not saying this tab is perfect, but its the way i play it, no solo, but the
one thats already on the website is pretty spot on anyway

Verse:
e|--------------------|
B|-------------8-7-5--|
G|-777-666-444-7-7-7--|
D|-777-777-444--------|
A|-555-444-222--------|
E|--------------------| x4

Lead Pre Chorus
e|---------------------------7-0-5-0---------|
B|----------------------------------3-5(x4)--|
G|-------------------------------------------|
D|-5-4-2-0-2-0-2-4-2-0-2-0-------------------|
A|------------------------3-2----------------|
E|-------------------------------------------|

Lead Chorus
e|-------------------------------------------------|
B|--10-8-7~---10-8-7~---10-8-7---10-8-7-10b-8-7~---|
G|----------------------------9~---------------9~--|
D|-------------------------------------------------|
A|-------------------------------------------------|
E|-------------------------------------------------|

e|-----------------------------------------------|
B|--10-8-7~---10-8-7~---10-8-7---10-8-7------7---|
G|----------------------------9~-------9~-7-9--9-|
D|-----------------------------------------------|
A|-----------------------------------------------|
E|-----------------------------------------------|

Verse:
e|--------------------|
B|-------------8-7-5--|
G|-777-666-444-7-7-7--|
D|-777-777-444--------|
A|-555-444-222--------|
E|--------------------| x4

Lead Pre Chorus 2
e|--------------------------------|
B|--------------------------------|
G|--------------------------------|
D|-5-4-2-0-2-0-2-4-2-0-2-0--------|
A|------------------------3-2-----|
E|--------------------------------|

Lead Pre Chorus 2
e|-----------------------7-0-5-0--------/7-/10-/12-/15--|
B|-/7-8-7-5-7-5-3-5-3------------3-5(x4)----------------|
G|-------------------4-2--------------------------------|
D|------------------------------------------------------|
A|------------------------------------------------------|
E|------------------------------------------------------|

Lead Chorus
e|-------------------------------------------------|
B|--10-8-7~---10-8-7~---10-8-7---10-8-7-10b-8-7~---|
G|----------------------------9~---------------9~--|
D|-------------------------------------------------|
A|-------------------------------------------------|
E|-------------------------------------------------|

e|-----------------------------------------------|
B|--10-8-7~---10-8-7~---10-8-7---10-8-7------7---|
G|----------------------------9~-------9~-7-9--9-|
D|-----------------------------------------------|
A|-----------------------------------------------|
E|-----------------------------------------------|

No idea about the slow bit or the rythem in the chorus, or pre chorus, but maybe
this will help someone

            
            
Suggest correction
Creating personal tab
Creating personal tab
You can edit any tab online and save it as your Personal.

You can edit, replace or remove any tab part or add personal notes – all changes will be seen only by you.

Personal tabs can be accessed anytime from any device, even offline.
Learn more »
Give kudos to tab author, rate the tab!
1 2 3 4 5
comments
print report bad tab
3 comments total.
0 reply
freshrocker 10 Dec 29, 2007 11:26 AM

I dont think that the last three notes of the intro are correct.

0 reply
jazztrumpet7707 10 Feb 02, 2008 02:41 PM

A lot of it sounds incorrect.

0 reply
GMCampey 394 Feb 28, 2008 10:51 AM

This looks a lot closer than the other one up on here, but neither of them are totally correct: It can be hard to hear what's going on in this song with all the strings and stuff, so I think people are picking different things out to emphasise...

guest
You may want to rate the tab now too:
select rating
Wanna post a correction for this tab? Suggest correction