Oops, an error
Loading. Please wait.

The End Complete Iv The Road And The Damned tab

version 2
version 2

Whole song

Interactive

8,321 views 1 this week
no commentswrite comment
1 2 3 4 5
1 last vote to show rating
add to favorites
×
Save as Personal and add changes to this tab that will be seen only by you. Learn more ›
×
You can save this tab as Personal to edit and correct it or add notes. All changes will be seen only by you. Learn more »
launch autoscroll
font size
0
reset
how to read this tab
guitar tuner
edit
Autoscroll
slow
fast
+/-
esc
set tempo
stop
Author
Difficulty
================================================================
The End Complete IV: The Road and the Damned by Coheed & Cambria
================================================================

Rhythm Guitar Part(s) & Guitar Solo

Tabbed by: tatinfatin

Tuning: Standard

Verse:

e|--------------------------------|
B|--------------------------------|
G|-7-7-7---6-6-6---4-4-4----------|
D|-7-7-7---7-7-7---4-4-4----9-7-5-|
A|-5-5-5---4-4-4---2-2-2---10-9-7-|
E|--------------------------------| x4/x4
   . . .   . . .   . . .

Pre-Chorus/Refrain I:

e|---------|
B|---------|
G|---------|
D|-2---5-7-|
A|-2---5-7-|
E|-0---3-5-|

Pre-Chorus/Refrain II:

e|-----------------|
B|-----------------|
G|-----------------|
D|-2---5---2---5-7-|
A|-2---5---2---5-7-|
E|-0---3---0---3-5-|

Chorus:

e|----------------------|
B|----------------------|
G|-7---(9---------------|
D|-7---(9-or-2)---5---7-|
A|-5---(7----2)---5---7-|
E|-----------0)---3---5-| x2/x2/x4

Solo:

e|---------10--------------------------------|
B|-10^(12)----10~-8-7-7p5h7------------------|
G|--------------------------7-9-/11-9-7---7~-|
D|--------------------------------------9----|
A|-------------------------------------------|
E|-------------------------------------------|

e|----------------------|
B|----------------------|
G|----------------------|
D|-2/4\2-0-2-/4-4p2-0-2-|
A|----------------------|
E|----------------------|

e|-----------10-------10-------10-------10-------10-------10-12^(14)-12-10----10^~-|
B|-/10-10h12----10h12----10h12----10h12----10h12----10h12------------------12------|
G|---------------------------------------------------------------------------------|
D|---------------------------------------------------------------------------------|
A|---------------------------------------------------------------------------------|
E|---------------------------------------------------------------------------------|

e|-------------------|
B|-------7-7p5---5~\-|
G|-7h8h9-------7-----|
D|-------------------|
A|-------------------|
E|-------------------|

Bridge:

e|------------------------------|---|
B|------------------------------|---|
G|-----2--2----------------2--2-|-0-|
D|---0--0---0---/5-4-2---0--0---|-0-|
A|-0--2-------2--------2--0-----|-2-|
E|------------------------------|-3-|

Outro:

e|------------------------------------|    |-------|
B|------------------------------------|    |-------|
G|-----2--2--2----------------2--2----|    |-----2-|
D|---0--0--0---0---/5-4-2---0--0------|    |---0---|
A|-2--0--2-------2--------2--0--------|    |-2-----|
E|---------------------------------3~-| x2 |-------|

Legend:

. - palm mute
~ - vibrato
/ - slide up
\ - slide down
^ - bend note
h - hammer-on
p - pull-off

=======
Lyrics:
=======

Verse I:

I believe in the world right in front of me
but now along these empty streets
where this curse holds these memories of a man
you know he's lost

Pre-Chorus/Refrain I:

no time to think about it
no room to breathe

Chorus I:

If I had a way back
I'd ride through the dark and the door
(but please don't wait for me)
because the man you love don't live anymore
I can't go home again

Verse II:

tonight you'll sleep
you'll feel what might become of me my dear
within these end old days where this longing turns
this man to pray and a love begins to die

Pre-Chorus/Refrain II:

no time to live in the deep
girl I'm worth the second chance
(what have I done?)
no time to think about it
no room to breathe

Chorus II:

If I had a way back
I'd ride through the dark and the door
(but please don't wait for me)
because the man you love don't live anymore
I can't go home again

Bridge:

I believed in the world once in front of me
well now that's gone

Chorus III: (x2)

If I had the way back
I'd ride through the dark and the door
(but please don't wait for me)
because the man you love don't live anymore
I can't go home again

Outro:

bye goodbye (x6)
bye my dear

            
            
Suggest correction
Creating personal tab
Creating personal tab
You can edit any tab online and save it as your Personal.

You can edit, replace or remove any tab part or add personal notes – all changes will be seen only by you.

Personal tabs can be accessed anytime from any device, even offline.
Learn more »
Give kudos to tab author, rate the tab!
1 2 3 4 5
comments
print report bad tab
guest
You may want to rate the tab now too:
select rating
Wanna post a correction for this tab? Suggest correction