Oops, an error
Loading. Please wait.
We have an official The Reaping tab made by UG professional guitarists. Check out the tab »
×
16,701 views 1 this week
5 commentsread comments
1 2 3 4 5
x 5
add to favorites
×
Save as Personal and add changes to this tab that will be seen only by you. Learn more ›
×
You can save this tab as Personal to edit and correct it or add notes. All changes will be seen only by you. Learn more »
launch autoscroll
font size
0
reset
how to read this tab
guitar tuner
edit
Autoscroll
slow
fast
+/-
esc
set tempo
stop
This is the intro to the album, just picked it out, so figured I'd post it while you're 
waiting on tabs for the other songs. It's pretty simple, and the same figure repeated 
the intro.

E  :------------|------------|------------|------------|------------|
B  :------------|------------|------------|------------|------------|
G  :------------|0-----------|------------|0-----------|--------7---|
D  :--------0---|----0-------|--------0---|----0-------|------5-----|
A  :----8-------|--------8---|----8-------|--------8---|0-h3--------|
D  :0-----------|------------|0-----------|------------|------------|

E  :-------------|------------|-------------|
B  :-------------|------------|-------------|
G  :7------------|--------0---|0------------|
D  :----5--------|------3-----|----3--------|
A  :--------3-\--|0-h1--------|--------1-/--|
D  :-------------|------------|-------------|

And there you have it.

            
            
Suggest correction
Creating personal tab
Creating personal tab
You can edit any tab online and save it as your Personal.

You can edit, replace or remove any tab part or add personal notes – all changes will be seen only by you.

Personal tabs can be accessed anytime from any device, even offline.
Learn more »
comments
print report bad tab
5 comments total. Showing first comments.
0 reply
Goodeyesniper24 20 Oct 15, 2007 12:05 PM

nice job, i was figuring it out, then i checked here and this is pretty much what i had, u should put the end chord, im pretty sure its

e---0--|
b---3--|
g---2--|
d---0--|
a---0--|
e---0--|

0 reply
tarallo 10 Nov 02, 2007 08:45 AM

Overall, pretty good, except in the beginning, I play:
e----------------|
b----------------|
g--------0-------|
d----3--------3--|
a------5----5----|
d--0-------------|

And the slide at the very end starts from the 2nd fret A.

Other than that, good work.

0 reply
tarallo 10 Nov 02, 2007 08:45 AM

*2nd fret D, sorry.

guest
Wanna post a correction for this tab? Suggest correction