Oops, an error
Loading. Please wait.

The Reaping tab

version 3
version 3

Whole song

Interactive

10,617 views 12 this week
no commentswrite comment
1 2 3 4 5
x 10
add to favorites
×
Save as Personal and add changes to this tab that will be seen only by you. Learn more ›
×
You can save this tab as Personal to edit and correct it or add notes. All changes will be seen only by you. Learn more »
launch autoscroll
font size
0
reset
how to read this tab
guitar tuner
edit
Autoscroll
slow
fast
+/-
esc
set tempo
stop
Author
Difficulty
Unregistered
"The Reaping"
Coheed and Cambria
tabbed by Larry Jones

The other tab was correct, but not really complete.  Here is the song with all the 
fingerpicked by Claudio.


e|-----------------------------------------------------------------------|
B|-----------------------------------------------------------------------|
G|-------0-----------0------------------7~-7~----------------0-0---------|
D|-----0---0-------0---0------------5----------5---------3-------3-2/7---|
A|---8-------8---8-------8/-----0h3---3----------3/--0h1---1-------------|
D|-0-----------0---------------------------------------------------------|
The above riff repeats the whole song.


Piano Riff/Vocal Melody (45 sec)
e|-13~---10~---------13-12-10-12~------12-10--------------|
B|------------10~-----------------13~---------13-11~------|
G|--------------------------------------------------------|
D|--------------------------------------------------------|
A|--------------------------------------------------------|
D|--------------------------------------------------------|

e|----------------------------------------------------------------------1-|
B|----------------------------------------------------------------------3-|
G|-------0-----------0------------------7~-7~----------------0-0--------2-|
D|-----0---0-------0---0------------5----------5---------3-------3-2p0--0-|
A|---8-------8---8-------8/-----0h3---3----------3/--0h1---1------------0-|
D|-0-----------0--------------------------------------------------------0-|

            
            
Suggest correction
Creating personal tab
Creating personal tab
You can edit any tab online and save it as your Personal.

You can edit, replace or remove any tab part or add personal notes – all changes will be seen only by you.

Personal tabs can be accessed anytime from any device, even offline.
Learn more »
comments
print report bad tab
guest
Wanna post a correction for this tab? Suggest correction