Oops, an error
Loading. Please wait.

The Willing Well Iv The Final Cut tab

version 3
version 3

Whole song

Interactive

1,613 views 1 this week
3 commentsread comments
1 2 3 4 5
1 last vote to show rating
add to favorites
×
Save as Personal and add changes to this tab that will be seen only by you. Learn more ›
×
You can save this tab as Personal to edit and correct it or add notes. All changes will be seen only by you. Learn more »
launch autoscroll
font size
0
reset
how to read this tab
guitar tuner
edit
Autoscroll
slow
fast
+/-
esc
set tempo
stop
Gtr I (D# G# C# F#) - 'elec.'
Gtr II (D# G# C# F# A# D#) - 'keyb. arr. for gtr.'
Gtr III (D# G# C# F# A# D#) - 'keyb. arr. for gtr.'

 Intro
  Moderately E.=85
 1/8                          6/8
  Gtr I
  E                             H.
|----------------------------|----------|
|----------------------------|----------|
|----------------------------|--7-------|
|----------------------------|----------|
|
| Gtrs II, III                 Gtr II
| |-----3------|
| X X X  X  X  X  X  X  X  X    H.
|----------------------------|----------|
|----------------------------|----------|
|----------------------------|-11-------|
|----------------------------|----------|
|-0-2-5-10-14-12-15-14-12-10-|----------|
|----------------------------|----------|


    Q.    Q.       H.          Q.   E E E
|--------------|-----------|--------------|
|--------------|-----------|--------------|
|--------/7----|-----------|----------0-2-|
|---0----------|---0-------|---0----3-----|
|
|  +H.            +H.         +H.
|--------------|-----------|--------------|
|--------------|-----------|--------------|
|-(11)---------|-(11)------|-(11)---------|
|--------------|-----------|--------------|
|--------------|-----------|--------------|
|--------------|-----------|--------------|


  E  E E Q  +S  S    e  E E Q  +S  S   e  E E e E E    e  E. S E. S E
|-----------------|------------------|--------------|------------------|
|-----------------|------------------|--------------|------------------|
|--------3--(3)---|--3--3---3--(3)---|-3--3---3-3---|--3--3----5----5s=|
|-3----3--------3-|-------3--------3-|------3-----3-|--------3----5----|
|
| H.                +H.                H.             +Q.      Q.
|-----------------|------------------|--------------|------------------|
|-----------------|------------------|--------------|------------------|
|-9---------------|-(9)--------------|--------------|----------7-------|
|-----------------|------------------|-9------------|-(9)--------------|
|-----------------|------------------|--------------|------------------|
|-----------------|------------------|--------------|------------------|


   Q   +E   Q.       Q.    Q.       Q.    Q  +S  S     Q   S S  E  E  E
|----------------|--------------|------------------|--------------------|
|----------------|--------------|------------------|---------x-17-16-14-|
|--7---(7)\------|--------/7----|--------/7--(7)-x-|--19\---------------|
|-----------0----|---0----------|---0--------------|--------------------|
|
|  H.               +H.            +H.                +H.
|----------------|--------------|------------------|--------------------|
|----------------|--------------|------------------|--------------------|
|-11-------------|-(11)---------|-(11)-------------|-(11)---------------|
|----------------|--------------|------------------|--------------------|
|----------------|--------------|------------------|--------------------|
|----------------|--------------|------------------|--------------------|


   |---3----|
   S   +S   S Q  +Q   E    Q   E Q  +S  S   e  E E Q  E    Q.   Q.
|-----------------------|-----------------|-------------|------------||
|-----------------------|-----------------|-------------|------------||
|-10--(10)--------------|--3-----3--(3)---|-3--3---3----|--3----5----||
|----------10-8--(8)s=3-|------3--------3-|------3----3-|------------||
|
|  H.                     +H.               H.            +Q.   Q.
|-----------------------|-----------------|-------------|------------||
|-----------------------|-----------------|-------------|------------||
|--9--------------------|-(9)-------------|-------------|-------7----||
|-----------------------|-----------------|-9-----------|-(9)--------||
|-----------------------|-----------------|-------------|------------||
|-----------------------|-----------------|-------------|------------||


 Verse
   Q.   Q.       H.          H.          H     E E
|------------|-----------|-----------|-------------|
|------------|-----------|-----------|-------------|
|-/7---------|-----------|-----------|-----------2-|
|-------0----|---0-------|---0-------|---0-----3---|
|
|  H.           +H.         +H.         +H.
|------------|-----------|-----------|-------------|
|------------|-----------|-----------|-------------|
|-11---------|-(11)------|-(11)------|-(11)--------|
|------------|-----------|-----------|-------------|
|------------|-----------|-----------|-------------|
|------------|-----------|-----------|-------------|


  H.         H     +E  E   H     +E  E    Q   E Q   E
|---------|--------------|-------------|--------------|
|---------|--------------|-------------|--------------|
|-3-------|--3-----(3)---|-3-----(3)---|--3-----5-----|
|---------|------------3-|-----------3-|------3-----3-|
|
| H.        +H.            H.            +Q.    Q.
|---------|--------------|-------------|--------------|
|---------|--------------|-------------|--------------|
|-9-------|-(9)----------|-------------|--------7-----|
|---------|--------------|-9-----------|-(9)----------|
|---------|--------------|-------------|--------------|
|---------|--------------|-------------|--------------|


   H.          H.          H.          Q.   E E E
|----------|-----------|-----------|--------------|
|----------|-----------|-----------|--------------|
|--7-------|-----------|---7-------|----------0-2-|
|----------|---0-------|-----------|---0----3-----|
|
|  H.         +H.         +H.         +H.
|----------|-----------|-----------|--------------|
|----------|-----------|-----------|--------------|
|-11-------|-(11)------|-(11)------|-(11)---------|
|----------|-----------|-----------|--------------|
|----------|-----------|-----------|--------------|
|----------|-----------|-----------|--------------|


  H.         H     +E  S S   H     +E  E    E  E E E  E E
|---------|----------------|-------------|-----------------|
|---------|----------------|-------------|-----------------|
|-3-------|--3-----(3)-----|-3-----(3)---|--3----3-5----5--|
|---------|--------------3-|-----------3-|-----3------3----|
|
| H.        +H.              H.            +Q.     Q.
|---------|----------------|-------------|-----------------|
|---------|----------------|-------------|-----------------|
|-9-------|-(9)------------|-------------|---------7-------|
|---------|----------------|-9-----------|-(9)-------------|
|---------|----------------|-------------|-----------------|
|---------|----------------|-------------|-----------------|


   H.        H.        H.        Q.   E E E
|----------|---------|---------|------------|
|----------|---------|---------|------------|
|--7-------|---------|-7-------|--------0-2-|
|----------|-0-------|---------|-0----0-----|
|
| Gtr III
|  H.        H.        H.        H.
|-12-------|---------|---------|------------|
|-12-------|---------|---------|------------|
|----------|---------|---------|------------|
|----------|---------|---------|------------|
|----------|---------|---------|------------|
|----------|---------|---------|------------|


   H.        H.        H     +E  E    Q     E  E  E  E
|----------|---------|-------------|-------------------||
|----------|---------|-------------|-------------------||
|--3-------|-3-------|-3-----(3)---|--3--------5--3--5-||
|----------|---------|-----------3-|--------3----------||
|
|  H.        H.        H.             E  E  E  E  E  E
|----------|---------|-------------|----------14-15-17-||
|-13-------|---------|-------------|-13-15-17----------||
|----------|---------|-------------|-------------------||
|----------|---------|-------------|-------------------||
|----------|---------|-------------|-------------------||
|----------|---------|-------------|-------------------||


 Chorus
   H     +E. S    Q   +E   Q.      H           +E. S    Q   +E   E E E
|--------------|----------------|--------------------|-----------------|
|--------------|----------------|--------------------|-----------------|
|--7-----(7)---|-/7---(7)\------|--7-----------(7)---|-/7---(7)\---0-2-|
|------------0-|-----------0----|------------------0-|-----------3-----|
|
|  H.             H.               E  E  E  Q.          H.
|-19-----------|----------------|-19-----------------|-----------------|
|--------------|----------------|----17-17-17--------|-----------------|
|--------------|----------------|--------------------|-----------------|
|--------------|----------------|--------------------|-----------------|
|--------------|----------------|--------------------|-----------------|
|--------------|----------------|--------------------|-----------------|


   Q   E Q.     Q  E Q.          E  E E Q.      S  E. E  S  E. E
|-------------|---------------|--------------|-------------------|
|-------------|---------------|--------------|-------------------|
|--3-----3----|-3----3--------|--3--3---3----|--3-----3--5-------|
|------3------|----3----------|-------3------|-----3--------3--3-|
|
|  H.           H        E  E    H.             Q.       Q.
|-------------|---------19----|--------------|-------------------|
|-17----------|------------17-|--------------|-17-------19-------|
|-------------|---------------|-17-----------|-------------------|
|-------------|---------------|--------------|----------19-------|
|-------------|---------------|--------------|-------------------|
|-------------|---------------|--------------|-------------------|


   Q.    Q.     Q.   Q.      Q.   Q.     Q.   E E E
|-------------|-----------|------------|------------|
|-------------|-----------|------------|------------|
|-------/7----|-----------|-/7----7----|--------0-2-|
|--0----------|-0----0----|------------|-0----0-----|
|
|  H.           H.           H.          H.
|-15----------|-----------|-19---------|------------|
|-17----------|-----------|-17---------|------------|
|-------------|-----------|------------|------------|
|-------------|-----------|------------|------------|
|-------------|-----------|------------|------------|
|-------------|-----------|------------|------------|


  Q   E Q.     e  E E Q.     Q  E Q.                 e  Q             e  E  E
|------------|-------------|----------------------|---------------------------||
|------------|-------------|----------------------|---------------------------||
|-3-----3----|-3--3---3----|-3----3---------------|--3--3-------------5--5--5-||
|-----3------|------3------|----3-----------------|---------------------------||
|
|                                       |--3---|           |--3---|
| H.           H.            H       E  S  S  +S     E  E  S  S  +S   E  E  E
|------------|-------------|----------------------|-------12-14-(14)-12-------||
|------------|-------------|----------------------|---------------------15-15-||
|------------|-------------|----------------------|-11-11---------------------||
|------------|-------------|-----------12-14-(14)-|---------------------------||
|------------|-------------|----------------------|---------------------------||
|------------|-------------|----------------------|---------------------------||


 Guitar Solo
   Q.   Q.     Q.   Q.     Q.   Q.      Q    +E    E  E  E
|------------|-----------|-----------|---------------------|
|------------|-----------|-----------|-14---(14)\-17-16-14-|
|-/7---------|-----------|------7----|---------------------|
|-------0----|-0----0----|-0---------|---------------------|
|
|  H.          H.          H.           H.
|-12---------|-----------|-----------|---------------------|
|------------|-----------|-----------|---------------------|
|------------|-----------|-----------|---------------------|
|------------|-----------|-----------|---------------------|
|------------|-----------|-----------|---------------------|
|------------|-----------|-----------|---------------------|


   |---3---|
   S  +S   S Q  +Q   E   Q  E Q  +S  S   e E E Q  +S  S   E E E e E E
|-12-(12)--------------|---------------|----------------|-------------|
|----------------------|---------------|----------------|-------------|
|----------------------|-3----3--(3)---|-3-3---3--(3)---|-3---3-5-5---|
|---------10-8--(8)s=3-|----3--------3-|-----3--------3-|---3-------3-|


  H.        Q.   Q.      Q  +E   Q.     Q.   E E E
|---------|-----------|---------------|------------|
|---------|-----------|---------------|------------|
|---------|------7----|-/7--(7)\------|--------0-2-|
|-0-------|-0---------|----------0----|-0----0-----|


  Q  +S  S Q  +S  S   e E E Q  E   Q  E Q.      e  Q   e  E  E
|-------------------|------------|-----------|-----------------||
|-------------------|------------|-----------|-10-----12----12-||
|-3--(3)---3--(3)---|-3-3---3----|-3----3----|----10-----10----||
|--------3--------3-|-----3----3-|----3------|-----------------||


 Guitar Solo
  H=H
             |--3--|              |--3---|
   Q.    Q   S  S  S    Q.    E.  S  S  +S   S
|--------------------|-------------------------|
|-14--------------12-|-14--------17p16-(16)----|
|-----------12h14----|----------------------17-|
|-------12-----------|-------12----------------|
|
| Gtr II
|  H.                  +H.
|--------------------|-------------------------|
|--------------------|-------------------------|
|--9-----------------|-(9)---------------------|
|--------------------|-------------------------|
|--------------------|-------------------------|
|--------------------|-------------------------|


                  |---3---|  |--3--|
   S   S  +Q   E +S  +S   S  S  S  S    Q    +S   S  E  E  E
|------------------------------------|-------------------------|
|-14------------------------------12-|-14---(14)---------------|
|---------------------------12h14----|-----------12h14p12------|
|-----12-(12)--0-(0)-(0)-12----------|--------------------15---|
|
| +H.                                  +H.
|------------------------------------|-------------------------|
|------------------------------------|-------------------------|
|-(9)--------------------------------|-(9)---------------------|
|------------------------------------|-------------------------|
|------------------------------------|-------------------------|
|------------------------------------|-------------------------|


  H     +S  S E    Q   +S  S e E E    Q.   Q  +S  S    e  Q    E  E E
|---------------|------------------|----------------|-----------------|
|---------------|------------------|----------------|-----------------|
|-3-----(3)-----|--3---(3)---3-3---|--3----3--(3)---|--3--3---/5--5-5-|
|-----------0h3-|----------3-----3-|--------------0-|-----------------|
|
| H.              +H.                +H.              +Q    E  Q.
|-8-------------|-(8)--------------|-(8)------------|-(8)-----10------|
|---------------|------------------|----------------|-----------------|
|---------------|------------------|----------------|-----------------|
|---------------|------------------|----------------|-----------------|
|---------------|------------------|----------------|-----------------|
|---------------|------------------|----------------|-----------------|


  Q.    Q.      Q.    Q.      Q.    Q  +S  S    Q   +E    E  E  E
|------------|-------------|-----------------|---------------------|
|------------|-------------|---------------x-|--9---(9)\-17-16-14--|
|------/7----|-------/7----|-------/7--(7)---|---------------------|
|-0----------|--0----------|--0--------------|---------------------|
|
| H.           +H.           +H.               +H.
|------------|-------------|-----------------|---------------------|
|------------|-------------|-----------------|---------------------|
|-9----------|-(9)---------|-(9)-------------|-(9)-----------------|
|------------|-------------|-----------------|---------------------|
|------------|-------------|-----------------|---------------------|
|------------|-------------|-----------------|---------------------|


   |---3----|
   S   +S   S Q  +Q   E    Q   E Q  +S  S    e  E E e E E    e  E E  e  E E
|-----------------------|-----------------|---------------|-----------------|
|-10--(10)--------------|-----------------|---------------|-----------------|
|-----------------------|--3-----3--(3)---|--3--3---3-3---|--3--3----5--5---|
|----------10-8--(8)s=3-|------3--------3-|-------3-----3-|-------3-------3-|
|
|  H.                     +H.               +H.             +Q.      Q.
|-----------------------|-----------------|---------------|-----------------|
|-----------------------|-----------------|---------------|-----------------|
|--9--------------------|-(9)-------------|-(9)-----------|-(9)-----11------|
|-----------------------|-----------------|---------------|-----------------|
|-----------------------|-----------------|---------------|-----------------|
|-----------------------|-----------------|---------------|-----------------|


  Q.   Q.      Q.   Q.      Q.   Q.      Q.   E E E
|------9----|--9---------|------------|-------------|
|-----------|------------|------------|-------------|
|-7---------|------------|------------|---------0-2-|
|-----------|-------0----|--0----0----|--0----0-----|
|
| H.          +H.          +H.          +H.
|-----------|------------|------------|-------------|
|-----------|------------|------------|-------------|
|-9---------|-(9)--------|-(9)--------|-(9)---------|
|-----------|------------|------------|-------------|
|-----------|------------|------------|-------------|
|-----------|------------|------------|-------------|


   Q.   Q.       Q.   Q.       Q.   Q.       E  E E E E E
|------------|-------------|-------------|----------------|
|------------|-------------|-------------|--------------5-|
|--3----3----|---3----3----|---3----3----|---3--3-3-5-3---|
|------------|-------------|-------------|----------------|
|
|  H.           +H.           +H.           +H.
|------------|-------------|-------------|----------------|
|------------|-------------|-------------|----------------|
|-12---------|-(12)--------|-(12)--------|-(12)-----------|
|------------|-------------|-------------|----------------|
|------------|-------------|-------------|----------------|
|------------|-------------|-------------|----------------|


  Faster E.=88
  Q.      Q.         Q.    Q.
|-----------------|-------------|
|-----------------|-------------|
|--------/7-------|-------/7----|
|-0---------------|--0----------|
|
| H.                +H.
|-----------------|-------------|
|-----------------|-------------|
|-9---------------|-(9)---------|
|-----------------|-------------|
|-----------------|-------------|
|-----------------|-------------|
|
| Gtr III
| Q    E  E   E E    H.
|-----------------|-------------|
|------------12---|-------------|
|-----11-12-----9-|-12----------|
|-----------------|-------------|
|-----------------|-------------|
|-----------------|-------------|


   Q.                 Q.              Q.         E  E     E
|---------------------------------|-------------------------|
|---------------------------------|-------------------------|
|--------------------/7-----------|-----------------0-----2-|
|--0------------------------------|---0----------0----------|
|
| +H.                                +H.
|---------------------------------|-------------------------|
|---------------------------------|-------------------------|
|-(9)-----------------------------|--(9)--------------------|
|---------------------------------|-------------------------|
|---------------------------------|-------------------------|
|---------------------------------|-------------------------|
|
|  S   S  S  S  S  S  E.  S  S  S    +Q    S  E.    S  E.
|-----24-19-17--------------------|-------------------------|
|--------------20-19-17--20-19-17-|-(17)--20-19----20-19----|
|---------------------------------|-------------------------|
|---------------------------------|-------------------------|
|---------------------------------|-------------------------|
|---------------------------------|-------------------------|


   Q   E Q     +S  S     e  E E Q  E
|--------------------|---------------|
|--------------------|---------------|
|--3-----3-----(3)---|---3--3---3----|
|------3-----------3-|--------3----3-|
|
|  H.                   +H.
|--------------------|---------------|
|--------------------|---------------|
|-11-----------------|-(11)----------|
|--------------------|---------------|
|--------------------|---------------|
|--------------------|---------------|
|
|  H         Q           H.
|----------^14-------|-^14-----------|
|----------^15-------|-^17-----------|
|----------^17-------|-^17-----------|
|--------------------|---------------|
|--------------------|---------------|
|--------------------|---------------|


    E      E     E     E     E     E     E      E     E  E     E  E
|------------------------------------|-----------------------------------||
|------------------------------------|-----------------------------------||
|---3------3-----3-----3-----3-----3-|---3------3-----3--5-----5--5------||
|------------------------------------|-----------------------------------||
|
|  +H.                                  +H.
|------------------------------------|-----------------------------------||
|------------------------------------|-----------------------------------||
|-(11)-------------------------------|-(11)------------------------------||
|------------------------------------|-----------------------------------||
|------------------------------------|-----------------------------------||
|------------------------------------|-----------------------------------||
|
|   <
|   S   S  S  S  S  S  S  S  S  S  E     S   S  S  S  E  S  S  E  S  S
|---------15-------15----15----15----|------15----15-------15-------15---||
|--13--13----13-13----13----13----13-|--13-----13----13-13----13-13------||
|------------------------------------|-----------------------------------||
|------------------------------------|-----------------------------------||
|------------------------------------|-----------------------------------||
|------------------------------------|-----------------------------------||


 Outro
   H.                     Q.                 Q.
|-----------------------|-------------------------------------|
|-----------------------|-------------------------------------|
|-----------------------|-------------------------------------|
|--0--------------------|-0------------------0----------------|
|
| Gtr III
|                             |--------------3--------------|
|  S   S  S  S  E  Q.     E   S.  S.  S.  S. E   S  E  S E  S
|-----15----15----12----|----15--15--17--19-----15-15-17---14-|
|-13-----13----13-------|----15--15--17--19-----15-15-17---14-|
|-----------------------|-------------------------------------|
|-----------------------|-------------------------------------|
|-----------------------|-------------------------------------|
|-----------------------|-------------------------------------|


   Q.               E     +S   E     S    Q.                 E     E     E
|--------------------------------------|---------------------------------------|
|--------------------------------------|---------------------------------------|
|-------------------7-----(7)--x-----0-|---------------------------0-----2-----|
|--0-----------------------------------|--0------------------0-----------------|
|
|  |-------3--------|
|  E   S E  S  E  S S.  S  S   S  S  S    S   S  S  S  S  S  S  S  S  S  S  S
|-14--15---12-12-14--------------------|---------------------------------------|
|-14--15---12-12-14-------12--14-------|---------------------------------------|
|----------------------12-12--14-14-12-|-11-----11-12----11-11----11-12--------|
|--------------------------------------|-14--14-14-14-14-14-14-14-14-14-14-12--|
|--------------------------------------|---------------------------------------|
|--------------------------------------|---------------------------------------|


   Q   E  Q.       Q     E       Q.
|--------------|----------------------------|
|--------------|----------------------------|
|--3------3----|---3-------------3----------|
|------3-------|---------3------------------|
|
|  Q.     Q.      +Q    +S    E.     +E   E
|--------12----|-(12)--(12)-^14-----(14)-14-|
|--------------|------------^15-----(15)----|
|--------------|------------^17-----(17)----|
|-10-----------|----------------------------|
|-10-----------|----------------------------|
|--------------|----------------------------|


  Q     E Q      +S   S     e  E E  e  E     E
|-----------------------|----------------------|
|-----------------------|----------------------|
|-3-------3------(3)----|---3--3-3--5--5-----5-|
|-------3-------------3-|----------------------|
|
| S   H      +E       S    +Q.      E.    S  E
|---!17-----(17)--------|----------------------|
|---!20-----(20)-----15-|-(15)-----------------|
|---!23-----(23)--------|----------11-------11-|
|-----------------------|----------12----12----|
|-----------------------|----------------------|
|-----------------------|----------------------|


  A Tempo E.=85
                      |---3---|  |--3--|
   H                 +S  +S   S  S  S  S    Q.   Q.
|----------------------------------------|----------------|
|-------------------------------------12-|-14-------------|
|-------------------------------12h14----|----------------|
|--0-----------------(0)-(0)-12----------|-------0--------|
|
|           |------------3-------------|
|  Q   +S   S.  E  S  E       S  E     S    H        E  E
|----------17--17-19-15------15-15----17-|-10-------------|
|-12--(12)-17--17-19-15------15-15----17-|-10-------------|
|-12--(12)-------------------------------|-11-------11-12-|
|----------------------------------------|----------------|
|----------------------------------------|----------------|
|----------------------------------------|----------------|


                           |--3---|  |--3--|
   H.                   E +S   S  S  S  S  S  Q     E
|--------------------|--------12-12-12-11----------12---|
|--------------------|--------------------12-14---------|
|--7-----------------|--7-(7)---------------------------|
|--------------------|----------------------------------|
|
|  E   E  E  E  E  E    E  E         E        E  E  E
|-10--12-------12----|----10-----------------12---------|
|--------------------|----------------------------------|
|--------11-12----11-|-12-----------11----------11-12---|
|--------------------|----------------------------------|
|--------------------|----------------------------------|
|--------------------|----------------------------------|


   |----3-----|
   E  +E      E  +Q      Q       W
|-----------------------------|--------------------|
|-12-(12)----10-(10)----------|--------------------|
|-----------------------------|--------------------|
|-----------------------------|--------------------|
|
|  E       E      E   E  E  E    E   E  E  E  E  E
|-10------12------------10-12-|--------10-12-------|
|-----------------------------|--------------------|
|----------------11--12-------|-11--12-------11-12-|
|-----------------------------|--------------------|
|-----------------------------|--------------------|
|-----------------------------|--------------------|
|
| Gtr II
|                        <       >      <
|  H                     Q      +Q      H
|-----------------------------|--------------------|
|-----------------------------|--------15----------|
|------------------------9----|-(9)----------------|
|-----------------------------|--------12----------|
|-----------------------------|--------------------|
|-----------------------------|--------------------|


    W                     W
|---------------------|---------------------|
|---------------------|---------------------|
|---------------------|---------------------|
|---------------------|---------------------|
|
|   E   E  E  E  E  E     E   E  E  E  E  E
|--10--12-------10-12-|---------10-12-------|
|---------------------|---------------------|
|---------11-12-------|--11--12-------11-12-|
|---------------------|---------------------|
|---------------------|---------------------|
|---------------------|---------------------|
|
|  +H.                   +H.
|---------------------|---------------------|
|-(15)----------------|-(15)----------------|
|---------------------|---------------------|
|-(12)----------------|-(12)----------------|
|---------------------|---------------------|
|---------------------|---------------------|


  Gtr III
    E   E  E  E  E  E     E   E  E  E  E  E
|--10--12-------10-12-|---------10-12-------|
|---------------------|---------------------|
|---------11-12-------|--11--12-------11-12-|
|---------------------|---------------------|
|---------------------|---------------------|
|---------------------|---------------------|
|
| Gtr II
|  +H.                   +H.
|---------------------|---------------------|
|-(15)----------------|-(15)----------------|
|---------------------|---------------------|
|-(12)----------------|-(12)----------------|
|---------------------|---------------------|
|---------------------|---------------------|


    E   E  E  E   E      E    E   E  E  E  E  E
|--10--12--------10-----12-|--------10-12--------|
|--------------------------|---------------------|
|---------11-12------------|-11--12-------11-12--|
|--------------------------|---------------------|
|--------------------------|---------------------|
|--------------------------|---------------------|
|
|  +H            +S  E.      +Q      H
|--------------------------|---------------------|
|-(15)----------(15)-------|---------------------|
|--------------------9-----|-(9)-----------------|
|-(12)----------(12)-------|--------12-----------|
|--------------------------|---------------------|
|--------------------------|---------------------|


                        H.=H
    E   E  E  E  E  E     E   E  E  E  E  E
|--10--12-------10-12-|---------10-12-14-15-|
|---------------------|---------------------|
|---------11-12-------|--11--12-------------|
|---------------------|---------------------|
|---------------------|---------------------|
|---------------------|---------------------|
|
|                         >
|  +H.                   +H.
|---------------------|---------------------|
|---------------------|---------------------|
|---------------------|---------------------|
|-(12)----------------|-(12)----------------|
|---------------------|---------------------|
|---------------------|---------------------|


    E   E  E  E   E    E      E    E    E    E    E    E
|--17--19-20-22-[12]-[14]-|-[15]-[17]-[19]-[20]-[22]-[24]-|
|-------------------------|-------------------------------|
|-------------------------|-------------------------------|
|-------------------------|-------------------------------|
|-------------------------|-------------------------------|
|-------------------------|-------------------------------|
|
|  +H.                       +H.
|-------------------------|-------------------------------|
|-------------------------|-------------------------------|
|-------------------------|-------------------------------|
|-(12)--------------------|-(12)--------------------------|
|-------------------------|-------------------------------|
|-------------------------|-------------------------------|


  Free Time E.=60
   +H       Q         +H.
|-(24)----^12------|-(12)----*|
|---------^12------|-(12)----*|
|---------!12-(12)-|-(12)----*|
|---------!14--14--|-(14)----*|
|---------!17-(17)-|-(17)----*|
|------------------|---------*|
    H       S   E.    +H.


Duration Legend
---------------
W - whole; H - half; Q - quarter; E - 8th; S - 16th; T - 32nd; X - 64th; a - acciaccatura
+ - note tied to previous; . - note dotted; .. - note double dotted
Uncapitalized letters represent notes that are staccato (1/2 duration)
Irregular groupings are notated above the duration line
Duration letters will always appear directly above the note/fret number it represents the
duration for.  Duration letters with no fret number below them represent rests.  Multi-
bar rests are notated in the form Wxn, where n is the number of bars to rest for.  Low
melody durations appear below the staff

Tablature Legend
----------------
 h   - hammer-on
 p   - pull-off
 b   - bend
 pb  - pre-bend
 r   - bend release (if no number after the r, then release immediately)
 /\  - slide into or out of (from/to "nowhere")
 s   - legato slide
 S   - shift slide
  - natural harmonic
[n]  - artificial harmonic
n(n) - tapped harmonic
 ~   - vibrato
 tr  - trill
 T   - tap
 TP  - trem. picking
 PM  - palm muting
\n/  - tremolo bar dip; n = amount to dip
 \n  - tremolo bar down
 n/  - tremolo bar up
/n\  - tremolo bar inverted dip
 =   - hold bend; also acts as connecting device for hammers/pulls
 <>  - volume swell (louder/softer)
 x   - on rhythm slash represents muted slash
 o   - on rhythm slash represents single note slash

Misc Legend
-----------
 |  - bar
||  - double bar
||o - repeat start
o|| - repeat end
*|  - double bar (ending)
 :  - bar (freetime)
 $  - Segno
 &  - Coda
Tempo markers -  = BPM(8/16=s8/s16), where s8 = swing 8ths, s16 = swing 16ths


            
            
Suggest correction
Creating personal tab
Creating personal tab
You can edit any tab online and save it as your Personal.

You can edit, replace or remove any tab part or add personal notes – all changes will be seen only by you.

Personal tabs can be accessed anytime from any device, even offline.
Learn more »
Give kudos to tab author, rate the tab!
1 2 3 4 5
comments
print report bad tab
3 comments total.
0 reply
NimRodd 10 Apr 18, 2007 12:46 PM

great tab! i've been trying to figure out the outro. *****STaRS

0 reply
msr#1fan 31 Sep 16, 2007 07:42 AM

sucks

0 reply
Malakiancopycat 142 Feb 18, 2009 05:17 PM

sucks like a prom queen.

guest
Wanna post a correction for this tab? Suggest correction