Oops, an error
Loading. Please wait.

Time Consumer tab

version 4
version 4

Whole song

Interactive

13,544 views 1 this week
1 commentread comment
1 2 3 4 5
x 5
add to favorites
×
Save as Personal and add changes to this tab that will be seen only by you. Learn more ›
×
You can save this tab as Personal to edit and correct it or add notes. All changes will be seen only by you. Learn more »
launch autoscroll
font size
0
reset
how to read this tab
guitar tuner
edit
Autoscroll
slow
fast
+/-
esc
set tempo
stop
Author
-----------------------------------------------------------------------
                             TIME CONSUMER - Coheed and Cambria
-----------------------------------------------------------------------
Tabbed by: John Romero
Email: jcrome@earthlink.net

Tuning: dropped D

Intro A
  Seems to have a mystical, starry tone, to set the setting of the story.

  Clean. Parts are lined up relative to each other.
  1st guitar 
e/----------5-------------5--------------5------------5------>\
B|----------5-------------5--------------5------------5------>|
G|-2/5-7-------7-5--5-7------7-5-7-5-7------7-5--5-7-----7--->|
D|-------0~~~~~~~~~~~~~-0~~~~~~~~~~~~~-0~~~~~~~~~~~~-0~~~~-0->|
A|----------------------------------------------------------->|
D|----------------------------------------------------------->|
 |                                                            |
 |2nd guitar   r = 10, s = 12                                 |
e|----------------------------------------------------------->|
B|----------------------------------------------------------->|
G|---r~~~~~-s--r-s~~~-r---s--r-s~~~~-r---s--r-s~~~-r---s----->|
D|----------------------------------------------------------->|
A|----------------------------------------------------------->|
D\----------------------------------------------------------->/

  1st guitar
e/------------------------------------------------------------>\
B|--10---10---11---11---11------10----10----10----10----10---->|
G|----10---10---10---10---10------10----10----10----10----10-->|
D|-8----8----8----8----8----0-------------------------------0->|
A|----------------------------10----10----10----10----10------>|
D|------------------------------------------------------------>|
 |                                                             |
 |2nd guitar                                                   |
e|------------------------------------------------------------>|
B|----11~~-11~~-10~~-10~~-10------8~~~--8~~~--8~~~--8~~~--8--->|
G|----10~~-10~~-10~~-10~~-10------10~~--10~~--10~~--10~~--10-->|
D|------------------------------------------------------------>|
A|------------------------------------------------------------>|
D\------------------------------------------------------------>/

  
  1st guitar Rhythm becomes complex here.
e/---------8------------8------------8------------8------>\
B|------------------------------------------------------->|
G|---10-----10----10-----10----10-----10-----10----10---->|
D|-/8---------8-/8----8----8-/8-----------8/8----8---8-0->|
A|-------10------------------------10---10--------------->|
D|------------------------------------------------------->|
 |                                                        |
 |2nd guitar                                              |
e|------------------------------------------------------->|
B|-----11~~~11~~~10~~~10~~~10----8~~~~8~~~~8~~~~8~~~~8--->|
G|-----10~~~10~~~10~~~10~~~10----10~~~10~~~10~~~10~~~10-->|
D|------------------------------------------------------->|
A|------------------------------------------------------->|
D\------------------------------------------------------->/

  r = 10, s = 12
  1st guitar
e/-------------------------0---------------\
B|---r-------r-------8-------8-------------|
G|-r---r---r---r---r---r-------r-----------|
D|-8-----8-------0-r-----r-------r-+12~~~~-|
A|---------------------------------+12~~~~-|
D|---------------------------------+12~~~~-|
 |                                         |
 |2nd guitar                               |
e|-----------------------------------------|
B|-----------------------------------------|
G|/r-9-r---9---r\-/r-9-r---9-s-r\----------|
D|---------------------------------+12~~~~-|
A|---------------------------------+12~~~~-|
D|---------------------------------+12~~~~-|
 |                                         |
 |3rd guitar                               |
e|-----------------------------------------|
B|-----------------------------------------|
G|/r-s-r---r-s-r\-/r-s-r---9-s-r\----------|
D|---------------------------------+12~~~~-|
A|---------------------------------+12~~~~-|
D|---------------------------------+12~~~~-|
 |                                         |
 |4th guitar                               |
e|-----------------------------------------|
B|---r-8-----8\------r-8-----8\------------|
G|-----------------------------------------|
D|---------------------------------+12~~~~-|
A|---------------------------------+12~~~~-|
D\---------------------------------+12~~~~-/


alternatively, you can combine the 2nd and 3rd guitar parts
e|------------------------------------------|
B|---8-------8-------8-------8--------------|
G|/r-9-r---9---r\-/r-9-r---9---r\-----------|
D|---------------------------------+12~~~~--|
A|---------------------------------+12~~~~--|
D|---------------------------------+12~~~~--|




Intro B
  1st guitar  1st guitar’s part stays mostly the same.
e/--------5-------------5--------------5-------------5------>\
B|--------5-------------5--------------5-------------5------>|
G|-5-7-------7-5--5-7------7-5-7-5-7------7-5--5-7------7--->|
D|-----0~~~~~~~~~~~~~-0~~~~~~~~~~~~~-0~~~~~~~~~~~~-0------0->|
A|---------------------------------------------------------->|
D|---------------------------------------------------------->|
 |                                                           |
 |2nd guitar  r = 10, s = 12                                 |
e|---------------------------------------------------------->|
B|---------------------------------------------------------->|
G|-r~~~~~-s--r-s~~~-r---s--r-s~~~~-r---s--r-s~~~-r---------->|
D|---------------------------------------------------------->|
A|---------------------------------------------------------->|
D|---------------------------------------------------------->|
 |                                                           |
 |3rd guitar                                                 |
e|--------5-------------5br------------5-------------5------>|
B|---------------------------------------------------------->|
G|---------------------------------------------------------->|
D|---------------------------------------------------------->|
A|---------------------------------------------------------->|
D\---------------------------------------------------------->/


  1st guitar
e/---------------------------------------------------------------->\
B|---10----10----11----11----11------10----10----10----10----10--->|
G|-----10----10----10----10----10------10----10----10----10----10->|
D|-8-----8-----8-----8-----8-----0-------------------------------->|
A|---------------------------------10----10----10----10----10----->|
D|---------------------------------------------------------------->|
 |                                                                 |
 |2nd guitar                                                       |
e|-13----13----13----13----13------17----17----17----17----17----->|
B|---15----15----15----15----15------15----15----15----15----15--->|
G|-----14----14----14----14----14------17----17----17----17----17->|
D|---------------------------------------------------------------->|
A|---------------------------------------------------------------->|
D|---------------------------------------------------------------->|
 |                                                                 |
 |3rd guitar                                                       |
e|---------------------------------------------------------------->|
B|-----11~~~-11~~~-10~~~-10~~~-10------8~~~~-8~~~~-8~~~~-8~~~~-8-->|
G|-----10~~~-10~~~-10~~~-10~~~-10------10~~~-10~~~-10~~~-10~~~-10->|
D|---------------------------------------------------------------->|
A|---------------------------------------------------------------->|
D\---------------------------------------------------------------->/


  1st guitar
e/---------8---------------8---------------8---------------8------->\
B|----------------------------------------------------------------->|
G|---10------10------10------10------10------10------10------10---->|
D|/8-----8-----8--/8-----8-----8--/8-----8-----8--/8-----8-----8-0->|
A|-----10--------------10--------------10--------------10---------->|
D|----------------------------------------------------------------->|
 |                                                                  |
 |2nd guitar                                                        |
e|---20----20----20----20----20------20----20----20----20----20---->|
B|-----17----17----17----17----17------17----17----17----17----17-->|
G|-19----19----19----19----19------17----17----17----17----17------>|
D|----------------------------------------------------------------->|
A|----------------------------------------------------------------->|
D\----------------------------------------------------------------->/

  r = 10, s = 12
  1st guitar
e/-------------------------0---------------\
B|---r-------r-------8-------8-------------|
G|-r---r---r---r---r---r-------r-----------|
D|-8-----8-------0-r-----r-------r-+12~~~~-|
A|---------------------------------+12~~~~-|
D|---------------------------------+12~~~~-|
 |                                         |
 |2nd guitar                               |
e|-----------------------------------------|
B|-----------------------------------------|
G|/r-9-r---9---r\-/r-9-r---9-s-r\----------|
D|---------------------------------+12~~~~-|
A|---------------------------------+12~~~~-|
D|---------------------------------+12~~~~-|
 |                                         |
 |3rd guitar                               |
e|-----------------------------------------|
B|-----------------------------------------|
G|/r-s-r---r-s-r\-/r-s-r---9-s-r\----------|
D|---------------------------------+12~~~~-|
A|---------------------------------+12~~~~-|
D|---------------------------------+12~~~~-|
 |                                         |
 |4th guitar                               |
e|-----------------------------------------|
B|---r-8-----8\------r-8-----8\------------|
G|-----------------------------------------|
D|---------------------------------+12~~~~-|
A|---------------------------------+12~~~~-|
D\---------------------------------+12~~~~-/


Intro C   
  some weird tones and effect pedals. May be computer generated stuff
  1st guitar /@ @\ = fade in and fade out in volume, respectively
e|-/@7~~~~@\->|
B|-/@8~~~~@\->|
G|-/@5~~~~@\->|
D|----------->|
A|----------->|
D|----------->|

  1st guitar                                    pick scrape attack
e/-/@7~~7~~~~~~@\----/@7~~7~~~~~~@\----/@7~~7~~~~~~@\----/@7~~-\
B|-/@8~~8~~~~~~@\----/@8~~8~~~~~~@\----/@8~~8~~~~~~@\----/@8~~-|
G|-/@5~~5~~~~~~@\----/@5~~5~~~~~~@\----/@5~~5~~~~~~@\----/@5~~-|
D|-------------------------------------------------------------|
A|-----------------------------------------------/*0-----------|
D|-------------------------------------------------------------|
 |                                                             |
 |2nd guitar  melody                                           |
e|----------0--------0--------0--------0--------0--------0-----|
B|----------8---8----8---8----8---8----8---8----8---8----8---8-|
G|------10----10-10----10-10----10-10----10-10----10-10----10--|
D|------0--------0--------0--------0--------0--------0---------|
A|-------------------------------------------------------------|
D|-------------------------------------------------------------|
 |                                                             |
 |3rd guitar  weird tone and maybe distortion/fx pedal         |
e|-21~~~~~~~~~~~~~@\-21~~~~~~~~~~~~~@\-21~~~~~~~~~~~~~@\-21~~~-|
B|-------------------------------------------------------------|
G|-------------------------------------------------------------|
D|-------------------------------------------------------------|
A|-------------------------------------------------------------|
D\-------------------------------------------------------------/

  1st guitar     slow pick scrape up the neck
e/-~~~~~~@\----------------------------------------------------\
B|-~~~~~~@\----------------------------------------------------|
G|-~~~~~~@\----------------------------------------------------|
D|-------------------------------------------------------------|
A|------------*/~~~~~~~~~--------------------------------------|
D|-------------------------------------------------------------|
 |                                                             |
 |2nd guitar                                                   |
e|-----0-------------------------------------------------------|
B|-----8---8---------------------------------------------------|
G|-10----10-10~~~~~~~~~~~~-------------------------------------|
D|-0--------0~~~~~~~~~~~~~-------------------------------------|
A|-------------------------------------------------------------|
D|-------------------------------------------------------------|
 |                                                             |
 |3rd guitar                                                   |
e|-~~~~~~------------------------------------------------------|
B|-------------------------------------------------------------|
G|-------------------------------------------------------------|
D|------------/@10@\/@10@\-------------------------------------|
A|------------/@10@\/@10@\-------------------------------------|
D\------------/@10@\/@10@\-------------------------------------/

Verse 1
  Add distortion
  1st and 3rd repeat, 2nd guitar plays Ending 2.
  2nd and 4th repeat, 2nd guitar plays Ending 3
  On 4th repeat, don’t palm mute the ending

  1st guitar and 2nd guitar       Ending 1                      X4
e||------------------------------|--------------------------------||
B||.-----------------------------|-------------------------------.||
G||--1010-1010-1010-1010-101010--|-101010101010101010101010--12~--||
D||--1010-1010-1010-1010-101010--|-101010101010101010101010--10~--||
A||.-8-8--8-8--8-8--8-8--8-8-8---|-8-8-8-7-7-7-8-8-8-7-7-7---7~~-.||
D||--8-8--8-8--8-8--8-8--8-8-8---|-----------------------------~--||
                                  Ending 2
 The young stale memories of...  |--------------------------------|
                                 |--------------------------------|
                                 |-1010109-9-9-1010109-9-9--------|
                                 |-101010101010101010101010--10~--|
                                 |-8-8-8-7-7-7-8-8-8-7-7-7---10~--|
                                 |---------------------------10~--|
                                   ........................
                                  Ending 3
                                 |--------------------------------|
                                 |-------------------5-5-5--------|
                                 |-1010109-9-9-1010105-5-5--------|
                                 |-1010101010101010105-5-5---10~--|
                                 |-8-8-8-7-7-7-8-8-8-7-7-7---10~--|
                                 |---------------------------10~--|
                                   .......................

Verse 2
  1st guitar
e/------------------------------------------------------------>\
B|------------------------------------------------------------>|
G|-1010-1010-1010-1010-101010---101010101010101010101010--12~->|
D|-1010-1010-1010-1010-101010---101010101010101010101010--10~->|
A|-8-8--8-8--8-8--8-8--8-8-8----8-8-8-7-7-7-8-8-8-7-7-7---7~~->|
D|-8-8--8-8--8-8--8-8--8-8-8---------------------------------->|
 |                                                             |
 |2nd guitar                                                   |
e|------------------------------------------------------------>|
B|------------------------------------------------5-5-5------->|
G|----10---10---10---10----10---1010109-9-9-1010105-5-5------->|
D|-7-8--7-8--7-8--7-8--7-8------1010101010101010105-5-5---10~->|
A|------------------------------8-8-8-7-7-7-8-8-8-7-7-7---10~->|
D\--------------------------------------------------------10~->/
   ...  ...  ...  ...  ...          ..............
 Debate to understand...

  1st guitar
e/------------------------------------------------------------>\
B|------------------------------------------------------------>|
G|-1010-1010-1010-1010-101010---101010101010101010101010--12~->|
D|-1010-1010-1010-1010-101010---101010101010101010101010--10~->|
A|-8-8--8-8--8-8--8-8--8-8-8----8-8-8-7-7-7-8-8-8-7-7-7---7~~->|
D|-8-8--8-8--8-8--8-8--8-8-8---------------------------------->|
 |                                                             |
 |2nd guitar                                                   |
e|------------------------------------------------------------>|
B|------------------------------------------------5-5-5------->|
G|----10---10---10---10----10---1010109-9-9-1010105-5-5------->|
D|-7-8--7-8--7-8--7-8--7-8------1010101010101010105-5-5---10~->|
A|------------------------------8-8-8-7-7-7-8-8-8-7-7-7---10~->|
D\--------------------------------------------------------10~->/
   ...  ...  ...  ...  ...

  1st guitar
e/------------------------------------------------------------>\
B|------------------------------------------------------------>|
G|-1010-1010-1010-1010-101010---101010101010101010101010--12~->|
D|-1010-1010-1010-1010-101010---101010101010101010101010--10~->|
A|-8-8--8-8--8-8--8-8--8-8-8----8-8-8-7-7-7-8-8-8-7-7-7---7~~->|
D|-8-8--8-8--8-8--8-8--8-8-8---------------------------------->|
 |                                                             |
 |2nd guitar                                                   |
e|------------------------------------------------------------>|
B|------------------------------------------------5-5-5------->|
G|-1010-1010-1010-1010-101010---1010109-9-9-1010105-5-5------->|
D|-1010-1010-1010-1010-101010---1010101010101010105-5-5---10~->|
A|-8-8--8-8--8-8--8-8--8-8-8----8-8-8-7-7-7-8-8-8-7-7-7---10~->|
D\-8-8--8-8--8-8--8-8--8-8-8------------------------------10~->/
                                .......................

  1st guitar
e/------------------------------------------------------------\
B|------------------------------------------------------------|
G|-1010-1010-1010-1010-101010---10~~~~~~~~~~~~~-10~~~~~~~~~~~-|
D|-1010-1010-1010-1010-101010---10~~~~~~~~~~~~~-10~~~~~~~~~~~-|
A|-8-8--8-8--8-8--8-8--8-8-8----8~~~~~~~~~~~~~~-7~~~~~~~~~~~~-|
D|-8-8--8-8--8-8--8-8--8-8-8----------------------------------|
 |                                                            |
 |2nd guitar                                                  |
e|------------------------------------------------------------|
B|------------------------------------------------------------|
G|-1010-1010-1010-1010-101010---1010109-9-9-10109~~~~~~-12~~~-|
D|-1010-1010-1010-1010-101010---101010101010101010~~~~~-------|
A|-8-8--8-8--8-8--8-8--8-8-8----8-8-8-7-7-7-8-8-7~~~~~~-10~~~-|
D\-8-8--8-8--8-8--8-8--8-8-8----------------------------------/


Chorus 1    3rd guitar plays only on second time through
  1st guitar
e/|----------------------------------->\
B||.---------------------------------->|
G||--55555555555555555555555555555555->|
D||--33333333222233330000000022223333->|
A||.-33333333222233330000000022223333->|
D||--33333333222233330000000022223333->|
 |                                     |
 | 2nd guitar                          |
e||----------------------------------->|
B||.---------------------------------->|
G||--17~~~~~-9~~-10~/17~~~~~-9~~-10~~->|
D||--x-------x---x---x-------x---x---->|
A||.-15~~~~~-7~~-8~~/15~~~~~-7~~-8~~~->|
D||----------------------------------->|
 |                                     |
 | 3rd guitar                          |
 |   use whammy or prebend for vibrato |
e||----------------------------------->|
B||.---------------------------------->|
G||----------------------------------->|
D||----------------------------------->|
A||.----/8~~/10~/12~~~/15~~~~~~~~~~~~->|
D\|----------------------------------->/

  Me and my star...

  1st guitar                       repeat to start of Chorus 1 once
e/---------------------------------------------------------------|\
B|--------------------------------------------------------------.||
G|-1010-10101010--1010-10101010--1010-10101010--1010-101010------||
D|-1010-10101010--1010-10101010--1010-10101010--1010-101010------||
A|-8-8--8-8-8-8---8-8--8-8-8-8---8-8--8-8-8-8---8-8--8-8-8------.||
D|-8-8--8-8-8-8---8-8--8-8-8-8---8-8--8-8-8-8---8-8--8-8-8-------||
 |                                                                |
 |2nd guitar                                                      |
e|---------------------------------------------------------------||
B|--------------------------------------------------------------.||
G|-2121-21\191919-1717-17/191919-2121-21\191919-1717-17/1919\17--||
D|-x-x--x--x-x-x--x-x--x--x-x-x--x-x--x--x-x-x--x-x--x—-x--------||
A|-1919-19\171717-1515-15/171717-1919-19\171717-1515-15/1717\15-.||
D|---------------------------------------------------------------||
 |                                                                |
 | 3rd guitar  start soft, grow louder. Prebend or whammy vibrato
e|---------------------------------------------------------------||
B|--------------------------------------------------------------.||
G|---------------------------------------------------------------||
D|---------------------------------------------------------------||
A|------------------------------/@15~~~~~~~~~~~~~~~~~~~~~~~~~~\-.||
D\---------------------------------------------------------------|/

  1st guitar
e/----------------------\
B|----------------------|
G|-10~~~~--9-10-9~~~~~~-|
D|-10~~~~--x-x--x-------|
A|-8~~~~~--7-8--7~~~~~~-|
D|-8~~~~~---------------|
 |                      |
 |2nd guitar            |
e|----------------------|
B|-----------------*1~~-|
G|-17~~~~--9-10-9~~-----|
D|-x-------x-x--x-------|
A|-15~~~~--7-8--8~~-----|
D\----------------------/

Verse 3
  1st guitar
e/------------------------------------------------------------>\
B|------------------------------------------------------------>|
G|-1010-1010-1010-1010-101010---101010101010101010101010--12~->|
D|-1010-1010-1010-1010-101010---101010101010101010101010--10~->|
A|-8-8--8-8--8-8--8-8--8-8-8----8-8-8-7-7-7-8-8-8-7-7-7---7~~->|
D|-8-8--8-8--8-8--8-8--8-8-8---------------------------------->|
 |                                                             |
 |2nd guitar                                                   |
e|------------------------------------------------------------>|
B|------------------------------------------------5-5-5------->|
G|-1010-1010-1010-1010-101010---1010109-9-9-1010105-5-5------->|
D|-1010-1010-1010-1010-101010---1010101010101010105-5-5---10~->|
A|-8-8--8-8--8-8--8-8--8-8-8----8-8-8-7-7-7-8-8-8-7-7-7---10~->|
D\-8-8--8-8--8-8--8-8--8-8-8------------------------------10~->/
                                .......................
 So they pulled your confidence down...

  1st guitar
e/------------------------------------------------------------>\
B|------------------------------------------------------------>|
G|-1010-1010-1010-1010-101010---101010101010101010101010--12~->|
D|-1010-1010-1010-1010-101010---101010101010101010101010--10~->|
A|-8-8--8-8--8-8--8-8--8-8-8----8-8-8-7-7-7-8-8-8-7-7-7---7~~->|
D|-8-8--8-8--8-8--8-8--8-8-8---------------------------------->|
 |                                                             |
 |2nd guitar                                                   |
e|------------------------------------------------------------>|
B|------------------------------------------------5-5-5------->|
G|-1010-1010-1010-1010-101010---1010109-9-9-1010105-5-5------->|
D|-1010-1010-1010-1010-101010---1010101010101010105-5-5---10~->|
A|-8-8--8-8--8-8--8-8--8-8-8----8-8-8-7-7-7-8-8-8-7-7-7---10~->|
D\-8-8--8-8--8-8--8-8--8-8-8------------------------------10~->/

  1st guitar
e/------------------------------------------------------------>\
B|------------------------------------------------------------>|
G|-1010-1010-1010-1010-101010---101010101010101010101010--12~->|
D|-1010-1010-1010-1010-101010---101010101010101010101010--10~->|
A|-8-8--8-8--8-8--8-8--8-8-8----8-8-8-7-7-7-8-8-8-7-7-7---7~~->|
D|-8-8--8-8--8-8--8-8--8-8-8---------------------------------->|
 |                                                             |
 |2nd guitar                                                   |
e|------------------------------------------------------------>|
B|------------------------------------------------5-5-5------->|
G|----10---10---10---10---10----1010109-9-9-1010105-5-5------->|
D|-7-8--7-8--7-8--7-8--7-8------1010101010101010105-5-5---10~->|
A|------------------------------8-8-8-7-7-7-8-8-8-7-7-7---10~->|
D\--------------------------------------------------------10~->/
   ...  ...  ...  ...  ...

  1st guitar
e/------------------------------------------------------------\
B|------------------------------------------------------------|
G|-1010-1010-1010-1010-101010---10~~~~~~~~~~~~~-10~~~~~~~~~~~-|
D|-1010-1010-1010-1010-101010---10~~~~~~~~~~~~~-10~~~~~~~~~~~-|
A|-8-8--8-8--8-8--8-8--8-8-8----8~~~~~~~~~~~~~~-7~~~~~~~~~~~~-|
D|-8-8--8-8--8-8--8-8--8-8-8----------------------------------|
 |                                                            |
 |2nd guitar                                                  |
e|------------------------------------------------------------|
B|------------------------------------------------------------|
G|----10---10---10---10---10----1010109-9-9-10109~~~~~~-12~~~-|
D|-7-8--7-8--7-8--7-8--7-8------101010101010101010~~~~~-x-----|
A|------------------------------8-8-8-7-7-7-8-8-7~~~~~~-10~~~-|
D\------------------------------------------------------------/
   ...  ...  ...  ...  ...


Chorus 2   Things get slightly technical here
  1st guitar
e/---------------------------------->\
B|---------------------------------->|
G|-55555555555555555555555555555555->|
D|-33333333222233330000000022223333->|
A|-33333333222233330000000022223333->|
D|-33333333222233330000000022223333->|
 |                                   |
 |2nd guitar                         |
e|---------------------------------->|
B|---------------------------------->|
G|/10~~~~~-9~~-10~/17~~~~~-9~~-10~~->|
D|-x-------x---x---x-------x---x---->|
A|/8~~~~~~-7~~-8~~/15~~~~~-7~~-8~~~->|
D\---------------------------------->/

  1st guitar
e/-------------------------------------------------------------->\
B|-------------------------------------------------------------->|
G|-1010-10101010--1010-10101010--1010-10101010--1010-101010----->|
D|-1010-10101010--1010-10101010--1010-10101010--1010-101010----->|
A|-8-8--8-8-8-8---8-8--8-8-8-8---8-8--8-8-8-8---8-8--8-8-8------>|
D|-8-8--8-8-8-8---8-8--8-8-8-8---8-8--8-8-8-8---8-8--8-8-8------>|
 |                                                               |
 |2nd guitar                                                     |
e|-------------------------------------------------------------->|
B|-------------------------------------------------------------->|
G|-2121-21\191919-1717-17/191919-2121-21\191919-1717-17/1919\17->|
D|-x-x--x--x-x-x--x-x--x--x-x-x--x-x--x--x-x-x--x-x--x—-x------->|
A|-1919-19\171717-1515-15/171717-1919-19\171717-1515-15/1717\15->|
D|-------------------------------------------------------------->|
 |                                                               |
 |3rd guitar             very fast whammy vibrato       finger slide up
e|-------------------------------------------------------------->|
B|-------------------------------------------------------------->|
G|-------------------------------*9~~~~~~~~~~~~~~~~~~~---------->|
D|--------------------------------------------------------/----->|
A|--------------------------------------------------------/----->|
D\-------------------------------------*\~~~~~~~~~--*\~~~-/----->/

  1st guitar
e/---------------------------------->\
B|---------------------------------->|
G|-55555555555555555555555555555555->|
D|-33333333222233330000000022223333->|
A|-33333333222233330000000022223333->|
D|-33333333222233330000000022223333->|
 |                                   |
 |2nd guitar                         |
e|---------------------------------->|
B|---------------------------------->|
G|/10~~~~~-9~~-10~/17~~~~~-9~~-10~~->|
D|-x-------x---x---x-------x---x---->|
A|/8~~~~~~-7~~-8~~/15~~~~~-7~~-8~~~->|
D|---------------------------------->|
 |                                   |
 |3rd guitar                         |
e|---------------------------------->|
B|---------------------------------->|
G|---------------------------------->|
D|---------------------------------->|
A|----/8~~/10~/12~~~/15~~~~~~~~~~~~->|
D\---------------------------------->/

  1st guitar                        clean
e/------------------------------------------------------------------>\
B|---------------------------------8----8--------8----8----8~~~~~~~->|
G|-1010-10101010--1010-10101010-----10---10-------10---10--10~~~~~~->|
D|-1010-10101010--1010-10101010--10---10---10--10---10-----10~~~~~~->|
A|-8-8--8-8-8-8---8-8--8-8-8-8-------------------------------------->|
D|-8-8--8-8-8-8---8-8--8-8-8-8-------------------------------------->|
 |                                                                   |
 |2nd guitar                                                         |
e|------------------------------------------------------------------>|
B|------------------------------------------------------------------>|
G|-2121-21\191919-1717-17/191919------------------------------------>|
D|-x-x--x--x-x-x--x-x--x--x-x-x------------------------------------->|
A|-1919-19\171717-1515-15/171717------------------------------------>|
D|------------------------------------------------------------------>|
 |                                                                   |
 |3rd guitar this part is too fast to be lined up properly           |
 |         16th notes             8th triplets           echo 13p10  |
e|------------------------------------------------------------------>|
B|-13-10-8-13p10p8h10-13p10p8h10--8h10h13p10h13p10-8h10h13p10h13p10->|
G|------------------------------------------------------------------>|
D|------------------------------------------------------------------>|
A|------------------------------------------------------------------>|
D\------------------------------------------------------------------>/


Bridge
  1st guitar
e/----------------------------------------------->\
B|----------------------------------------------->|
G|----5--5-----5--5--7-7--7-7--9-9--5-5--5--5-5-->|
D|-----5--9-----7--9-5-5--5-5--7-7--3-3--3--3-3-->|
A|-5h8------5h7------5-5--5-5--7-7--3-3--3--3-3-->|
D|----------------------------------------------->|
 |                                                |
 |2nd guitar play clean and soft                  |
e|-------------------1010-1010-1212-8-8--8--8-8-->|
B|-------------------8-8--8-8--1010-8-8--8--8-8-->|
G|----5--------5-----7-7--7-7--9-9--5-5--5--5-5-->|
D|-----5-95-----7—95-7-7--7-7--9-9--5-5--5--5-5-->|
A|-5h8--8--85h7--7--5---------------------------->|
D\----------------------------------------------->/

                                 
  1st guitar                   distortion
e/---------------------------------------------->\
B|-------5-------------------------------------->|
G|----5--------5-----7-7--7-7--9-9--5-5--5--5-5->|
D|-----5--95----7-95-5-5--5-5--7-7--3-3--3--3-3->|
A|-5h8------5h7------5-5--5-5--7-7--3-3--3--3-3->|
D|---------------------------------------------->|
 |                                               |
 |2nd guitar                                     |
e|-------------------1010-1010-1212-8-8--8--8-8->|
B|-------------------8-8--8-8--1010-8-8--8--8-8->|
G|----5--------5-----7-7--7-7--9-9--5-5--5--5-5->|
D|-----5-95-----7-95-7-7--7-7--9-9--5-5--5--5-5->|
A|-5h8--8--85h7--7------------------------------>|
D\---------------------------------------------->/

  1st guitar
e/-------------------------------------------->\
B|-------------------------------------------->|
G|-55555555222222227-7--7-7--9-9--5-5--5--5-5->|
D|-33333333222222225-5--5-5--7-7--3-3--3--3-3->|
A|-33333333000000005-5--5-5--7-7--3-3--3--3-3->|
D|-------------------------------------------->|
 |                                             |
 |2nd guitar                                   |
e|-----------------1010-1010-1212-8-8--8--8-8->|
B|-----------------8-8--8-8--1010-8-8--8--8-8->|
G|--5--5-----5--5--7-7--7-7--9-9--5-5--5--5-5->|
D|---5--5-579-79-977-7--7-7--9-9--5-5--5--5-5->|
A|-8--8--8------------------------------------>|
D\-------------------------------------------->/
   .........  .   .

  1st guitar
e/---------------------------------------------------------\
B|---------------------------------------------------------|
G|-555555552222222255-55-55-55-5~5-55-55-55-55-5~55--------|
D|-333333332222222233-33-33-33-3~3-55-55-55-55-5~550~~~~~~-|
A|-333333330000000033-33-33-33-3~3-33-33-33-33-3~330~~~~~~-|
D|-----------------33-33-33-33-3~3-----------------0~~~~~~-|
 |                                                         |
 |2nd guitar                                               |
e|-----------------88-88-88-88-8~8-88-88-88-88-8~88--------|
B|-----------------88-88-88-88-8~8-88-88-88-88-8~88--------|
G|--5--5-----5-5~~~77-77-77-77-7~7-77-77-77-77-7~77--------|
D|---5--5-579-79~~~55-55-55-55-5~5-55-55-55-55-5~550~~~~~~-|
A|-8--8--8-----------------------------------------0~~~~~~-|
D\-------------------------------------------------0~~~~~~-/
   .........  .

Solo A          3rd guitar has a really technical solo with some
                weird effects. I’ll try to approximate it as best I
                can.
  1st guitar
  clean
e/----------5-------------5--------------5-------------5------>\
B|----------5-------------5--------------5-------------5------>|
G|-2/5-7-7-----7-5--5-7------7-5-7-5-7------7-5--5-7------7--->|
D|-------0~~~~~~~~~~~~~-0~~~~~~~~~~~~~-0~~~~~~~~~~~~-0~~~~~-0->|
A|------------------------------------------------------------>|
D|------------------------------------------------------------>|
 |                                                             |
 |2nd guitar  r = 10, s = 12                                   |
 |clean                                                        |
e|------------------------------------------------------------>|
B|------------------------------------------------------------>|
G|---r~~~~~-s--r-s~~~-r---s--r-s~~~~-r---s--r-s~~~-r---s------>|
D|------------------------------------------------------------>|
A|------------------------------------------------------------>|
D|------------------------------------------------------------>|
 |                                                             |
 |3rd guitar  # - diagonal pick scrape back and forth with a
 |     rough side of the pick (or a rough edged coin/tremolo) near the 
 |     bridge pickup... I think. Makes the alien-y effect.     |
 |distortion                                                   |
 |    pick scrape attack 6, then whammy down slowly (or prebend)
e|------------------------------------------------------------>|
B|------------------------------------------------------------>|
G|------------------------------------------------------------>|
D|---------------------###############################-------->|
A|----------/*b8r~~~~~~~~~~~~--------------------------------->|
D\------------------------------------------------------------>/

  1st guitar
e/------------------------------------------------------------------->\
B|------10----10----11----11----11------10----10----10----10----10--->|
G|--------10----10----10----10----10------10----10----10----10----10->|
D|----8-----8-----8-----8-----8------0------------------------------->|
A|------------------------------------10----10----10----10----10----->|
D|------------------------------------------------------------------->|
 |                                                                    |
 |2nd guitar                                                          |
e|----13----13----13----13----13------17----17----17----17----17----->|
B|------15----15----15----15----15------15----15----15----15----15--->|
G|--------14----14----14----14----14------17----17----17----17----17->|
D|------------------------------------------------------------------->|
A|------------------------------------------------------------------->|
D|------------------------------------------------------------------->|
 |                                                                    |
 |4th guitar                                                          |
e|------------------------------------------------------------------->|
B|--------11~~~-11~~~-10~~~-10~~~-10------8~~~~-8~~~~-8~~~~-8~~~~-8-->|
G|--------10~~~-10~~~-10~~~-10~~~-10------10~~~-10~~~-10~~~-10~~~-10->|
D|------------------------------------------------------------------->|
A|------------------------------------------------------------------->|
D|------------------------------------------------------------------->|
 |                                                                    |
 |3rd guitar r = 10, s = 12                                           |
 | prewhammy down, then go up                                         |
e|------------------------------------------------------------------->|
B|-------------------------------------------------------r----------->|
G|------------------------------------------------9-s/s-----s-r-9~~~->|
D|-------------------------------##---#########-r-------------------->|
A|-/*/8--7----7~~~~~~------------------------------------------------>|
D\----------r---------r-r~~~~~~~\------------------------------------>/

  1st guitar
e/----------8---------------8---------------8---------------8------>\
B|----------------------------------------------------------------->|
G|----10------10------10------10------10------10------10------10--->|
D|-/8-----8-----8--/8-----8-----8--/8-----8-----8--/8-----8-----8-->|
A|------10--------------10--------------10--------------10--------->|
D|----------------------------------------------------------------->|
 |                                                                  |
 |2nd guitar                                                        |
e|----20----20----20----20----20------20----20----20----20----20--->|
B|------17----17----17----17----17------17----17----17----17----17->|
G|--19----19----19----19----19----1917----17----17----17----17----->|
D|----------------------------------------------------------------->|
A|----------------------------------------------------------------->|
D|----------------------------------------------------------------->|
 |                                                                  |
 |4th guitar                                                        |
e|----------------------------------------------------------------->|
B|------11~~~-11~~~-10~~~-10~~~-10------8~~~~-8~~~~-8~~~~-8~~~~-8-->|
G|------10~~~-10~~~-10~~~-10~~~-10------10~~~-10~~~-10~~~-10~~~-10->|
D|----------------------------------------------------------------->|
A|----------------------------------------------------------------->|
D|----------------------------------------------------------------->|
 |                                                                  |
 |3rd guitar r = 10, s = 12                                         |
 |  #r - pick the note with the rough side of the pick              |
 |          vibrato                                                 |
e|---------#*s~~~~~~~------#*s~~~~~~~------------------------------>|
B|----------------------------------------------------------------->|
G|--##9-#r----------##*9#*r---------##9-#s-#r-#9--------#9--------->|
D|-----------------------------------------------#r-#s------#r----->|
A|-------------------------------------------------------------s~~->|
D\----------------------------------------------------------------->/

  1st guitar
e/-------------------------0---------------\
B|---r-------r-------8-------8-------------|
G|-r---r---r---r---r---r-------r-----------|
D|-8-----8-------0-r-----r-------r-+12~~~~-|
A|---------------------------------+12~~~~-|
D|---------------------------------+12~~~~-|
 |                                         |
 |2nd guitar                               |
e|-----------------------------------------|
B|-----------------------------------------|
G|/r-9-r---9---r\-/r-9-r---9-s-r\----------|
D|---------------------------------+12~~~~-|
A|---------------------------------+12~~~~-|
D|---------------------------------+12~~~~-|
 |                                         |
 |4th guitar                               |
e|-----------------------------------------|
B|-----------------------------------------|
G|/r-s-r---r-s-r\-/r-s-r---9-s-r\----------|
D|---------------------------------+12~~~~-|
A|---------------------------------+12~~~~-|
D|---------------------------------+12~~~~-|
 |                                         |
 |5th guitar                               |
e|-----------------------------------------|
B|---r-8-----8\------r-8-----8\------------|
G|-----------------------------------------|
D|---------------------------------+12~~~~-|
A|---------------------------------+12~~~~-|
D|---------------------------------+12~~~~-|
 |                                         |
 |3rd guitar                               |
 | whammy vibrato                 whammy into 8, then slowly go down
e|------------------------------------------|
B|------------------------------------------|
G|------------------------------------------|
D|------------------------------------------|
A|~~~~~~~~~~~~~~~~~~~~~~~~~~~~~~~-/8~~~~~~~-|
D\------------------------------------------/

Solo B
  2nd guitar                                                            
e/------------------------------------------0------->\
B|------------------------------------------8---8--->|
G|--------------------------------------10----10-10->|
D|--------------------------------------0--------0-->|
A|-------------------------------------------------->|
D|-------------------------------------------------->|
 |                                                   |
 |3rd guitar                                         |
e|----------b*19r17----------------*17-------------->|
B|----------------------#*17-16p15---------b*17r15-->|
G|-########--------#####--------------#####--------->|
D|-------------------------------------------------->|
A|-------------------------------------------------->|
D\-------------------------------------------------->/

  2nd guitar
e/----0----------0-------0---------0--------0------->\
B|----8---8------8--8----8---8-----8---8----8---8--->|
G|------10-10-----10-10----10-10-----10-10----10-10->|
D|---------0---------0--------0---------0--------0-->|
A|-------------------------------------------------->|
D|-------------------------------------------------->|
 |                                                   |
 |3rd guitar   fast whammy vibrato                   |
 |                    slow pick scrape, then slide finger up neck
e|----------------------------1519~~~#16------------>|
B|-17------/1720~~17~~~~~~~------------------------->|
G|---17~~~~------------------------------##########->|
D|--------------------------/----------------------->|
A|--------------------------/----------------------->|
D\--------------------*\~~~-/----------------------->/

  2nd guitar
e/--0--------------------0--------0-------0------------------------\
B|--8---8----------------8---8----8--8----8---8--------------------|
G|----10-10----------------10-10---10-10----10---------------------|
D|-------0--------------------0-------0----------------------------|
A|-----------------------------------------------------------------|
D|-----------------------------------------------------------------|
 |                                                                 |
 |3rd guitar not lined up                                          |
 |   very fast                                                     |
 | 5 = 15, 1 = 11. etc                                             |
e|---5975--65254232422h4p2-----------------------------------------|
B|-------98---------------424--------------------------------------|
G|-##------------------------24214121------------------------------|
D|-----------------------------------24214121------------------*/--|
A|-------------------------------------------24214121----------*/--|
D\---------------------------------------------------24214121\-*/---/

e/-----0--------0------------------------------------\
B|-----8---8----8---8--------------------------------|
G|-10----10-10----10---------------------------------|
D|-0--------0----------------------------------------|
A|---------------------------------------------------|
D|---------------------------------------------------|
 |                                                   |
 |3rd guitar                                         |
 | whammy vibrato effect on ~                        |
e|---------------------------------------------------|
B|-*15b18~-*15b17~*15b17~----------------------------|
G|---------------------------------------------------|
D|---------------------------------------------------|
A|---------------------------------------------------|
D\---------------------------------------------------/


Chorus 3
  1st guitar
e/----------------------------------------------------------------->\
B|----------------------------------------------------------------->|
G|-55555555555555555555555555555555-------------------------------->|
D|-33333333222233330000000022223333-------------------------------->|
A|-33333333222233330000000022223333-------------------------------->|
D|-33333333222233330000000022223333-------------------------------->|
 |                                                                  |
 |2nd guitar                                                        |
e|----------------------------------------------------------------->|
B|----------------------------------------------------------------->|
G|/10~~~~~-9~~-10~/17~~~~~-9~~-10~~-------------------------------->|
D|-x-------x---x---x-------x---x----------------------------------->|
A|/8~~~~~~-7~~-8~~/15~~~~~-7~~-8~~~-------------------------------->|
D\----------------------------------------------------------------->/

  1st guitar
e/-------------------------------------------------------------->\
B|-------------------------------------------------------------->|
G|-1010-10101010--1010-10101010--1010-10101010--1010-101010----->|
D|-1010-10101010--1010-10101010--1010-10101010--1010-101010----->|
A|-8-8--8-8-8-8---8-8--8-8-8-8---8-8--8-8-8-8---8-8--8-8-8------>|
D|-8-8--8-8-8-8---8-8--8-8-8-8---8-8--8-8-8-8---8-8--8-8-8------>|
 |                                                               |
 |2nd guitar                                                     |
e|-------------------------------------------------------------->|
B|-------------------------------------------------------------->|
G|-2121-21\191919-1717-17/191919-2121-21\191919-1717-17/1919\17->|
D|-x-x--x--x-x-x--x-x--x--x-x-x--x-x--x--x-x-x--x-x--x—-x------->|
A|-1919-19\171717-1515-15/171717-1919-19\171717-1515-15/1717\15->|
D|-------------------------------------------------------------->|
 |                                                               |
 |3rd guitar    7=17,1=11, etc                                   |
e|-------------------------------------------------------------->|
B|-------------------------------------------------------------->|
G|------7p5p45-4~~-7p5p45-6~~-4-5-7--5--4--5--4---4------------->|
D|----------------------------------------------7---7---5--7~~-->|
A|-------------------------------------------------------------->|
D\-------------------------------------------------------------->/

  1st guitar
e/---------------------------------->\
B|---------------------------------->|
G|-55555555555555555555555555555555->|
D|-33333333222233330000000022223333->|
A|-33333333222233330000000022223333->|
D|-33333333222233330000000022223333->|
 |                                   |
 |2nd guitar                         |
e|---------------------------------->|
B|---------------------------------->|
G|/10~~~~~-9~~-10~/17~~~~~-9~~-10~~->|
D|-x-------x---x---x-------x---x---->|
A|/8~~~~~~-7~~-8~~/15~~~~~-7~~-8~~~->|
D|---------------------------------->|
 |                                   |
 |3rd guitar                         |
e|---------------------------------->|
B|---------------------------------->|
G|---------------------------------->|
D|---------------------------------->|
A|----/8~~/10~/12~~/15~~~~~~~~~~~~\->|
D\---------------------------------->/

  1st guitar
e/-------------------------------------------------------------->\
B|-------------------------------------------------------------->|
G|-1010-10101010--1010-10101010--1010-10101010--1010-101010----->|
D|-1010-10101010--1010-10101010--1010-10101010--1010-101010----->|
A|-8-8--8-8-8-8---8-8--8-8-8-8---8-8--8-8-8-8---8-8--8-8-8------>|
D|-8-8--8-8-8-8---8-8--8-8-8-8---8-8--8-8-8-8---8-8--8-8-8------>|
 |                                                               |
 |2nd guitar                                                     |
e|-------------------------------------------------------------->|
B|-------------------------------------------------------------->|
G|-2121-21\191919-1717-17/191919-2121-21\191919-1717-17/1919\17->|
D|-x-x--x--x-x-x--x-x--x--x-x-x--x-x--x--x-x-x--x-x--x—-x------->|
A|-1919-19\171717-1515-15/171717-1919-19\171717-1515-15/1717\15->|
D|-------------------------------------------------------------->|
 |                                                               |
 |3rd guitar                                                     |
e|---------17-15~~-17-18-17-15~~~~~~~~~~~~~~~~~~~~~~~~~~~~~~~~~->|
B|---14-17------------------------------------------------------>|
G|-------------------------------------------------------------->|
D|-------------------------------------------------------------->|
A|-------------------------------------------------------------->|
D\-------------------------------------------------------------->/

  1st guitar
e/---------------------------------->\
B|---------------------------------->|
G|-55555555555555555555555555555555->|
D|-33333333222233330000000022223333->|
A|-33333333222233330000000022223333->|
D|-33333333222233330000000022223333->|
 |                                   |
 |2nd guitar                         |
e|---------------------------------->|
B|---------------------------------->|
G|-17~~~~~-9~~-10~/17~~~~~-9~~-10~~->|
D|-x-------x---x---x-------x---x---->|
A|-15~~~~~-7~~-8~~/15~~~~~-7~~-8~~~->|
D\---------------------------------->/

  1st guitar
e/-------------------------------------------------------------->\
B|-------------------------------------------------------------->|
G|-1010-10101010--1010-10101010--1010-10101010--1010-101010----->|
D|-1010-10101010--1010-10101010--1010-10101010--1010-101010----->|
A|-8-8--8-8-8-8---8-8--8-8-8-8---8-8--8-8-8-8---8-8--8-8-8------>|
D|-8-8--8-8-8-8---8-8--8-8-8-8---8-8--8-8-8-8---8-8--8-8-8------>|
 |                                                               |
 |2nd guitar                                                     |
e|-------------------------------------------------------------->|
B|-------------------------------------------------------------->|
G|-2121-21\191919-1717-17/191919-2121-21\191919-1717-17/1919\17->|
D|-x-x--x--x-x-x--x-x--x--x-x-x--x-x--x--x-x-x--x-x--x—-x------->|
A|-1919-19\171717-1515-15/171717-1919-19\171717-1515-15/1717\15->|
D|-------------------------------------------------------------->|
 |                                                               |
 |3rd guitar slowly release to 15                                |
e|-------------------------------------------------------------->|
B|-b17r~~~~~~~~~~~15~~~~~~~~------------------------------------>|
G|-------------------------------------------------------------->|
D|-------------------------------------------------------------->|
A|-------------------------------------------------------------->|
D\-------------------------------------------------------------->/

  1st guitar
e/---------------------------------->\
B|---------------------------------->|
G|-55555555555555555555555555555555->|
D|-33333333222233330000000022223333->|
A|-33333333222233330000000022223333->|
D|-33333333222233330000000022223333->|
 |                                   |
 |2nd guitar                         |
e|---------------------------------->|
B|---------------------------------->|
G|/17~~~~~-9~~-10~/17~~~~~-9~~-10~~->|
D|-x-------x---x---x-------x---x---->|
A|/15~~~~~-7~~-8~~/15~~~~~-7~~-8~~~->|
D|---------------------------------->|
 |                                   |
 |3rd guitar                         |
e|---------------------------------->|
B|---------------------------------->|
G|---------------------------------->|
D|---------------------------------->|
A|----/8~~/10~/12~~/15~~~~~~~~~~~~\->|
D\---------------------------------->/

  1st guitar
e/-------------------------------------------------------------->\
B|-------------------------------------------------------------->|
G|-1010-10101010--1010-10101010--1010-10101010--1010-101010----->|
D|-1010-10101010--1010-10101010--1010-10101010--1010-101010----->|
A|-8-8--8-8-8-8---8-8--8-8-8-8---8-8--8-8-8-8---8-8--8-8-8------>|
D|-8-8--8-8-8-8---8-8--8-8-8-8---8-8--8-8-8-8---8-8--8-8-8------>|
 |                                                               |
 |2nd guitar                                                     |
e|-------------------------------------------------------------->|
B|-------------------------------------------------------------->|
G|-2121-21\191919-1717-17/191919-2121-21\191919-1717-17/1919\17->|
D|-x-x--x--x-x-x--x-x--x--x-x-x--x-x--x--x-x-x--x-x--x—-x------->|
A|-1919-19\171717-1515-15/171717-1919-19\171717-1515-15/1717\15->|
D|-------------------------------------------------------------->|
 |                                                               |
 |3rd guitar                                                     |
e|-----------------------------------------------15-17-18--20~~->|
B|--------------------------------------15-17-18---------------->|
G|-------------------------------------------------------------->|
D|-------------------------------------------------------------->|
A|-------------------------------------------------------------->|
D\-------------------------------------------------------------->/

  1st guitar
e/----------------------------------------------\
B|----------------------------------------------|
G|-10~~~~--9-10-9~~~~~~-------------------------|
D|-10~~~~--x-x--x-------------------------------|
A|-8~~~~~--7-8--7~~~~~~-------------------------|
D|-8~~~~~---------------------------------------|
 |                                              |
 |2nd guitar       slowly bend into 10          |
e|----------------------------------------------|
B|----------------------------------------------|
G|-17~~~~--9-10-9~~~~~~b10~---------------------|
D|-x-------x-x--x-------------------------------|
A|-15~~~~--7-8--8~~~~~~~~~~---------------------|
D|----------------------------------------------|
 |                                              |
 |3rd guitar  some weird effect that sounds     |
 |            something like a pick scrape fall |
e|----------------------------------------------|
B|----------------------------------------------|
G|----------------------------------------------|
D|--------------####-*\-##-*\-------------------|
A|-------------------*\----*\-------------------|
D\-------------------*\----*\-------------------/


| /  slide up
| \  slide down
| */ pick scrape up
| *\ pick scrape down
| h  hammer-on
| p  pull-off
| b  bend (depending on placement, this can mean prebend too eg. b17)
| r  release
| ~  vibrato/hold note out
| *  pinch harmonic
| +  natural harmonic
| x  Mute note with fret hand
| .  palm mute with pick hand



            
            
Suggest correction
Creating personal tab
Creating personal tab
You can edit any tab online and save it as your Personal.

You can edit, replace or remove any tab part or add personal notes – all changes will be seen only by you.

Personal tabs can be accessed anytime from any device, even offline.
Learn more »
comments
print report bad tab
1 comment total.
0 reply
Karmapolice911 462 Jul 16, 2012 09:52 AM

Sorry, but Claudio's part in the chorus here is incorrect, and there is a much simpler way to play the bridge (the one he uses live, it can be seen in any video). My tab (ver. 5) corrects this. Cheers!

guest
You may want to rate the tab now too:
select rating
Wanna post a correction for this tab? Suggest correction