Oops, an error
Loading. Please wait.
35,878 views 15 this week
1 commentread comment
1 2 3 4 5
x 15
add to favorites
×
Save as Personal and add changes to this tab that will be seen only by you. Learn more ›
×
You can save this tab as Personal to edit and correct it or add notes. All changes will be seen only by you. Learn more »
launch autoscroll
font size
0
reset
how to read this tab
guitar tuner
edit
Autoscroll
slow
fast
+/-
esc
set tempo
stop
Author
A few notes to point out:

-This is my first tab submission

-This is mainly from the "Snakes on a Plane" soundtrack, not the version off of 
'GAIBS4'. But it can be used for pretty much any acoustic version of the song.

-This tab was originally made by topjimistheking. It was great, but I felt that it 
was missing a few notes here and there. So a majority of the props go to him, I 
added a few more revisions.

-If you don't understand the picking, listen to song and it should make a bit more 
sense. (pretty much 1/4 notes)

TUNING: (2 ways to tune)

1. (The way I use)- Standard tuning. CAPO 4TH FRET
2. Half step down - CAPO 5TH FRET


[Intro] verse, pre-chorus:

   E  E   E     E E  E    E E   S S E  E    E  E  E     E S  S
e|----------------------------|---------------------------------|
B|----3--------------3--------|---------------------------------|
G|--------0---------------0---|-----------0----2--------0-2p=0--|
D|--------------0-----------0-|--------0----------0-------------|
A|-3--------------3-----------|-----2---------------------------|
E|----------------------------|-2h3---------0--2----------------|


[Chorus] (2 options)

1. Finger picking
  
    S  S S S E E E E E S S   E  E     E     E     E  E               S S S S
e|-------------------------|----3-----------3--------3-----------------------|
B|-------------------------|----3-----------3--------3---------------3p0-----|
G|-------------------------|---------------------------------------------2---|
D|-----------0---------0h2-|-----------------------------------------------0h|
A|-------0h2---2---2-0-----|-3--------3-----------3--------------------------|
E|--0h=3---------3---------|-------------------------------------------------|

   S S  E    E     E      E  E S S S S    E  E    E    E     E E E     E
e|--------------------------------------|--------------------------------|              __
B|------1----------1---------0h1p0------|----0---------0-------0-------0-|     \  /    /  \
G|---2-------------2---------2-----2----|----0---------0---------------0-|      \/        |
D|-2---------2------------2----------2--|--------------------------------|      /\        /
A|--------------------------------------|-3-------3----------3---3-------|     /  \      /
E|--------------------------------------|--------------------------------|              ----
                              
e|---------||
B|---------||
G|---0-----||
D|---0-----||
A|---3-----||
E|---------||


2. Chords (I actually like playing it this way a bit more)

   G, C/D, Am, C

G                 C/D
 The morning will come
        Am
 In the press of every kiss
           C
 With your head upon my chest
G                C/D
 Where I will annoy you
     Am
 With every waking breath
       C
 Until you decide to wake up.

That's pretty much all it is. But still beautiful
HOPE YOU ENJOY. DON'T FORGET TO RATE AND COMMENT.

************************************

| h  Hammer-on
| p  Pull-off

************************************

            
            
Suggest correction
Creating personal tab
Creating personal tab
You can edit any tab online and save it as your Personal.

You can edit, replace or remove any tab part or add personal notes – all changes will be seen only by you.

Personal tabs can be accessed anytime from any device, even offline.
Learn more »
comments
print report bad tab
1 comment total.
+2 reply
tigtheastrona 25 Aug 18, 2014 11:42 PM

A few notes were wrong in the verse, and the chorus was a bit off, so here's my corrections. I learned the song from the video of Claudio playing this song live at the Namm show. It's definitely right. The notes in parentheses are ones that he doesn't play on every repeat of the riff, but adds them in sometimes. The open high E string during the verse might have been a mistake on Claudio's part since he only used it once in the song, but it sounded nice so I added it here in parentheses.
Intro, verse, pre-chorus:

e|---------------------------------------------(0)--------------|
B|----3--------------3-----------------------------------------|
G|--------0--------------0---------------0--(2)--------2p0-----|
D|------------0-------------0---------0------------0-----------|
A|-3--------------3----------------2------------0--------------|
E|-----------------------------2h3-----------2-----------------|


Chorus:

e|-----------------------------------------------------------------------|
B|----------------------------3-------3-------3----3p0-------------------|
G|----------------------------0-------0-------0----0----(2p0)------------|
D|-----------0-----------------------------------------------------------|
A|-------0h2---2---2---2---3------3-------3------------------------------|
E|--2h3----------3---3---------------------------------------------------|

|--------------------------------------------------------------------|
|------1-----1-----1----1p0----------1-----1-----1----1p0------------|
|------2-----2-----2----2--(2p0)-----0-----0-----0----0--(2p0)-------|
|--------------------------------------------------------------------|
|---0------0-----0----------------3-----3-----3----------------------|
|--------------------------------------------------------------------|

guest
You may want to rate the tab now too:
select rating
Wanna post a correction for this tab? Suggest correction