Oops, an error
Loading. Please wait.
10,667 views 1 this week
no commentswrite comment
1 2 3 4 5
1 last vote to show rating
add to favorites
×
Save as Personal and add changes to this tab that will be seen only by you. Learn more ›
×
You can save this tab as Personal to edit and correct it or add notes. All changes will be seen only by you. Learn more »
launch autoscroll
font size
0
reset
how to read this tab
guitar tuner
edit
Autoscroll
slow
fast
+/-
esc
set tempo
stop
Author
WAKE UP (Acoustic version) by Coheed and Cambria

INTRO:

GUITAR 1:
      F                    C    G
|----3--------3---------------------------|
|------1--------1----------1----3---3-3p1-|
|--------2--------2------0--------0-------|   2X
|--3--------3----------2------------------|
|--------------------3-------3------------|
|-------------------------------3-----3---|

GUITAR 2:

|----3-1-0------8-8s10-7-5-3---|
|----------3-1---------------1-|
|------------------------------|   2x
|------------------------------|
|------------------------------|
|------------------------------|


VERSE 1 and PRECHORUS:

      F                    C    G
|----3--------3---------------------------|
|------1--------1----------1----3---3-3p1-|
|--------2--------2------0--------0-------|
|--3--------3----------2------------------|
|--------------------3-------3------------|
|-------------------------------3-----3---|


CHORUS:
               C               F              Dm               F
|---------0---------0------3-3-3-3p0----------1-1-1-1p0----------3-3-3-3-|
|-------1---1---1-----1-------------------3------------------1-----------|
|-----0-------0---0---------------------2---2--------------2---2---------|
|---2--------------------3------------0------------------3---------------|
|-3----------------------------------------------------------------------|
|------------------------------------------------------------------------|

               C               F              Dm         F
|---------0---------0------3-3-3-3p0----------1-1-1-1p0--3-|
|-------1---1---1-----1-------------------3--------------1-|
|-----0-------0---0---------------------2---2--------------|
|---2--------------------3------------0------------------3-|
|-3--------------------------------------------------------|
|----------------------------------------------------------|


VERSE 2:
GUITAR 1:

      F                    C    G
|----3--------3---------------------------|
|------1--------1----------1----3---3-3p1-|
|--------2--------2------0--------0-------|
|--3--------3----------2------------------|
|--------------------3-------3------------|
|-------------------------------3-----3---|

GUITAR 2:

|-----------------------------------------|
|-------------------5~-----5----3~----3s1-|
|-------------------5~-----5----4~----4s2-|
|-----------------------------------------|
|-----------------------------------------|
|-----------------------------------------|

PRECHORUS:
GUITAR 1:

      F                    C    G
|----3--------3---------------------------|
|------1--------1----------1----3---3-3p1-|
|--------2--------2------0--------0-------|
|--3--------3----------2------------------|
|--------------------3-------3------------|
|-------------------------------3-----3---|

GUITAR 2:
|----------------------------3--5---3~----|
|--------------------------1--------------|
|-----------------------------------------|
|-----------------------------------------|
|-----------------------------------------|
|-----------------------------------------|

CHORUS:
GUITAR 1:
               C               F              Dm               F
|---------0---------0------3-3-3-3p0----------1-1-1-1p0----------3-3-3-3-|
|-------1---1---1-----1-------------------3------------------1-----------|
|-----0-------0---0---------------------2---2--------------2---2---------|
|---2--------------------3------------0------------------3---------------|
|-3----------------------------------------------------------------------|
|------------------------------------------------------------------------|

GUITAR 2: pasok sa F
|-8s10-8------8---------15-13-12-----------------15-13-12---------------|
|-8s10-8-8-10--10-10-13----------13-10-13-10--13----------13-10-13-10s8-|
|-----------------------------------------------------------------------|
|-----------------------------------------------------------------------|
|-----------------------------------------------------------------------|
|-----------------------------------------------------------------------|

GUITAR 1:

               C               F              Dm               F
|---------0---------0------3-3-3-3p0----------1-1-1-1p0----------3-3-3-3-|
|-------1---1---1-----1-------------------3------------------1-----------|
|-----0-------0---0---------------------2---2--------------2---2---------|
|---2--------------------3------------0------------------3---------------|
|-3----------------------------------------------------------------------|
|------------------------------------------------------------------------|

GUITAR 2: pasok sa F
|----------------------------------------------------------|
|----------------------------------------------------------|
|-5s7-----5--------12-10-9-----------12-10-9---------------|
|-5s7-5-7---7-7-10---------10-7-10-7---------12-10-12-10-7-|
|----------------------------------------------------------|
|----------------------------------------------------------|

GUITAR 1:
               C               F              Dm               F
|---------0---------0------3-3-3-3p0----------1-1-1-1p0----------3-3-3-3-|
|-------1---1---1-----1-------------------3------------------1-----------|
|-----0-------0---0---------------------2---2--------------2---2---------|
|---2--------------------3------------0------------------3---------------|
|-3----------------------------------------------------------------------|
|------------------------------------------------------------------------|

GUITAR 2:
|-8p5-----8p5-------------------------------------------------------|
|-----8p5-----8p5-5h8-------------------------6-8-6-5-----6-8-6-5---|
|---------------------7-5--7-5---5-------5--5---------5-5---------5-|
|------------------------------5---5-5h7----------------------------|
|-------------------------------------------------------------------|
|-------------------------------------------------------------------|


GUITAR 1:

               C               F              Dm               F
|---------0---------0------3-3-3-3p0----------1-1-1-1p0----------3-3-3-3-|
|-------1---1---1-----1-------------------3------------------1-----------|
|-----0-------0---0---------------------2---2--------------2---2---------|
|---2--------------------3------------0------------------3---------------|
|-3----------------------------------------------------------------------|
|------------------------------------------------------------------------|

GUITAR 2:
|-20-17-------20-17-----------------------|
|-------20-17-------20-17-17h20-15-13-15b-|
|-----------------------------------------|
|-----------------------------------------|
|-----------------------------------------|
|-----------------------------------------|

|------------------------------15-13-12-------------|
|-13-15b-13----13-----13----13----------13----13----|
|-----------14-----14----14----------------14----14-|
|---------------------------------------------------|
|---------------------------------------------------|
|---------------------------------------------------|

LYRICS:

I'm gonna ride this plane out of your life again
I wish that I could stay, but you argue
MOre than this I wish, you could've seen my face
In backseats staring out the window

I'll do anything for you
Kill anyone for you

So leave your self intact
'Cause I will be coming back
In a phrase to cut these lips
I love you

The morning will come
In the press of every kiss
With your head upon my chest
Where I will annoy you
With every waking breath
Until you decide to wake up

I've earned through hope and faith
On the curves around your  face
That I'm the one you'll hold forever
If morning never comes for either one of us
Then his I pray to you wherever

I'll do anything for you
This story is for you
('Cause I'd do anything you want me to for you)
Kill anyone for you

So leave your self intact
'Cause I won't be coming back
In a phrase to cut these lips
I loved you

The morning will come
In the press of every kiss
With your head upon my chest
Where I will annoy you
With every waking breath
Until you decide to wake up

The morning will come
In the press of every kiss
With your head upon my chest
Where I will annoy you
With every waking breath
'Til you decide to wake up

...pasensya na sa tabs medyo magulo... 1 fret lower pala yung tuning neto..


NITRAM
05-30-08
06:51 PM

            
            
Suggest correction
Creating personal tab
Creating personal tab
You can edit any tab online and save it as your Personal.

You can edit, replace or remove any tab part or add personal notes – all changes will be seen only by you.

Personal tabs can be accessed anytime from any device, even offline.
Learn more »
Give kudos to tab author, rate the tab!
1 2 3 4 5
comments
print report bad tab
guest
You may want to rate the tab now too:
select rating
Wanna post a correction for this tab? Suggest correction