Oops, an error
Loading. Please wait.

Malibu bass

by Coin
514 views 12 this week
4 commentsread comments
1 2 3 4 5
2 more votes to show rating
add to favorites
×
Save as Personal and add changes to this tab that will be seen only by you. Learn more ›
×
You can save this tab as Personal to edit and correct it or add notes. All changes will be seen only by you. Learn more »
launch autoscroll
font size
0
reset
guitar tuner
edit
Autoscroll
slow
fast
+/-
esc
set tempo
stop
This song is pretty long, 
but most of the bass just repeats or has a few fills thrown in.

[Intro]
(0:03)
G|------------------------------------------------------------------------------| 
D|------------------------------------------------------------------------------|
A|----------4-------------2--2-2---2--2-2--4------------------------------------|
E|--2--2-2-----2--2-2--4--------------------------------------------------------|

[Verse]
(0:16)
"I watched you board..."
G|------------------------------------------------------------------------------|
D|------------------------------------------------------------------------------|
A|----------------------2--2-2---2--2-2-----------------------------------------|
E|--2--2-2---2--2-2--4----------------------------------------------------------|

G|------------------------------------------------------------------------------|
D|------------------------------------------------------------------------------|
A|----------------------2--2-2---2--2-2-/-6-------------------------------------|
E|--2--2-2---2--2-2--4----------------------------------------------------------|

[Pre-Chorus]
(0:42)
"Our time had come to a..."
G|-------------------------------------------------------------------------------|
D|-------------------------------------------------------------------------------|
A|----------------------2--2-2---2--2-2-/-6--------------------------------------|
E|--2--2-2---2--2-2--4-----------------------------------------------------------|

G|-------------------------------------------------------------------------------|
D|----------------------------------------4--------------------------------------|
A|----------------------2--2-2---2--2-/-6---6-4----------------------------------|
E|--2--2-2---2--2-2--4-----------------------------------------------------------|

[Chorus]
(1:08)
"Well, I..."
G|-------------------------------------------------------------------------------|
D|-------------------------------------------------------------------------------|
A|----------------------------------2-2-2-2-2-2-2-2-2-2-2-2-2-/-6-6-4------------|
E|--2-2-2-2-2-2-2-2-2-2-2-2-2-2-4-4----------------------------------------------|

G|-------------------------------------------------------------------------------|
D|-------------------------------------------------------------------------------|
A|----------------------------------2-2-2-2-2-2-2-2-2-2-2-2-2-2-6-6--------------|
E|--2-2-2-2-2-2-2-2-2-2-2-2-2-2-4-4----------------------------------------------|

"Oh..."
G|-------------------------------------------------------------------------------|
D|-------------------------------------------------------------------------------|
A|--------------2----2---4--------------2----2---4-------------------------------|
E|--2----2---4--------------2----2---4-------------------------------------------|

G|-------------------------------------------------------------------------------|
D|-------------------------------------------------------------------------------|
A|--------------4-4------------------2-2-2-2-2-2-2-2-2-2-2-2-6-6-6-4-------------|
E|--2-2-2-2-2-2-----2-2-2-2-2-2-4-4----------------------------------------------|

[Verse]
(2:13)
"Our names..."
G|-------------------------------------------------------------------------------|
D|-------------------------------------------------------------------------------|
A|----------------------2--2-2---2--2-2-/-6--------------------------------------|
E|--2--2-2---2--2-2--4-----------------------------------------------------------|

[Pre-Chours]
(2:26)
"I told my mom..."
G|-------------------------------------------------------------------------------|
D|----------------------------------------------------------------9--------------|
A|--------------4-4------------------1-1-1-1-1-1-1-1-2-2-2-2-/-10---10-9---------|
E|--2-2-2-2-2-2-----2-2-2-2-2-2-4-4----------------------------------------------|

[Chorus]
(2:40)
"Oh..."
G|-------------------------------------------------------------------------------|
D|-------------------------------------------------------------------------------|
A|----------------------2--2-2---2--2-/-6----------------------------------------| (x2)
E|--2--2-2---2--2-2--4--------------------4--------------------------------------|

G|-------------------------------------------------------------------------------|
D|---------------------------------------------------------------4---------------|
A|--------------4-4------------------2-2-2-2-2-2-2-2-2-2-2-2-/-6---6-4-----------|
E|--2-2-2-2-2-2-----2-2-2-2-2-2-4-4----------------------------------------------|

[Bridge]
(3:18)
"And I..."
G|-------------------------------------------------------------------------------|
D|-------------------------------------------------------------------------------|
A|--6----6/9---9/11-11--4---4--2----------------------------/-6----6--4---4--2---|
E|----------------------------------4--2----2-2-2-2-2-2-4-4----------------------|

G|-------------------------------------------------------------------------------|
D|-------------------------------------------------------------------------------|
A|--------------4-4------------------2-2-2-2---------1-1-1-1-2-2-2-2-------------|
E|--2-2-2-2-2-2-----2-2-2-2-2-2-4-4----------4-4-4-4-----------------------------|

G|-------------------------------------------------------------------------------|
D|-------------------------------------------------------------------------------|
A|--------------4-4------------------2-2-2-2---------1-1-1-1-2-2-2-2-------------|
E|--2-2-2-2-2-2-----2-2-2-2-2-2-4-4----------4-4-4-4------------------2----------|

[Verse]
(4:30)
"Now money's not..."
G|-------------------------------------------------------------------------------|
D|-------------------------------------------------------------------------------|
A|--------------4-------------2--2-2---2--2-2-/-6--------------------------------|
E|--7-\-2--2-2-----2--2-2--4-----------------------------------------------------|

[Outro]
(4:43)
G|-------------------------------------------------------------------------------|
D|---------------------------------------------------------------4---------------|
A|--------------4-4------------------2-2-2-2-2-2-2-2-2-2-2-2-/-6---6-4-----------|
E|--2-2-2-2-2-2-----2-2-2-2-2-2-4-4----------------------------------------------|

G|-------------------------------------------------------------------------------|
D|-----------------------------------------------------------6-4-----------------|
A|--------------4-4------------------2-2-2-2-2-2-2-2-2-2-2-2-----6-6-------------|
E|--2-2-2-2-2-2-----2-2-2-2-2-2-4-4----------------------------------------------|

G|-------------------------------------------------------------------------------|
D|-----------------------------------------------------------6-4-----------------|
A|--------------4-4------------------2-2-2-2-2-2-2-2-2-2-2-6-----6-4-------------|
E|--2-2-2-2-2-2-----2-2-2-2-2-2-4-4----------------------------------------------|

G|-------------------------------------------------------------------------------|
D|---------------------------------------------------------4---6-4---------------|
A|--------------4-4------------------2-2-2-2-2-2-2-2-2-/-6---6-----6-4-----------|
E|--2-2-2-2-2-2-----2-2-2-2-2-2-4-4------------------------------------2---------|


************************************

| /  Slide up
| \  Slide down

************************************

            
            
Suggest correction
Creating personal tab
Creating personal tab
You can edit any tab online and save it as your Personal.

You can edit, replace or remove any tab part or add personal notes – all changes will be seen only by you.

Personal tabs can be accessed anytime from any device, even offline.
Learn more »
Give kudos to tab author, rate the tab!
1 2 3 4 5
comments
print report bad tab
4 comments total. Showing first comments.
+1 reply
ravensfan2785 2,194 May 05, 2017 08:55 PM

Great work man! And on the other COIN bass tabs as well :)

+1 reply
stroodleman841 1,391 May 06, 2017 03:36 PM

Thank you! I hope they help, I try pretty hard to get them just right :)

+1 reply
ravensfan2785 2,194 May 06, 2017 03:50 PM

For sure! I'm a big COIN fan as well and enjoy tabbing their music. I tabbed "Run" on bass and am planning to tab more songs in the future.

guest
You may want to rate the tab now too:
select rating
Wanna post a correction for this tab? Suggest correction