Oops, an error
Loading. Please wait.

Hay Amor tab

31 views 1 this week
no commentswrite comment
1 2 3 4 5
3 more votes to show rating
add to favorites
×
Save as Personal and add changes to this tab that will be seen only by you. Learn more ›
×
You can save this tab as Personal to edit and correct it or add notes. All changes will be seen only by you. Learn more »
launch autoscroll
font size
0
reset
how to read this tab
guitar tuner
edit
Autoscroll
slow
fast
+/-
esc
set tempo
stop
Intro
               Am   (Hacia Arriba)
E---------------0I
B---------------1I
G---------------2I
D----------0----2I
A----------------I
E---0-4-7--------I

E-0-1-2-1I
B-1-1-1-1I     X2
G-2-2-2-2I

Am
Hay amor

Lo aprendí de una canción,
         F       G         C  Am
Lo aprendí en el cine matinal,
         F          G         C  Am
Lo aprendí de una escena teatral

Am
Hay amor

Que difícil de encontrar
          F        G            C  Am
No es lo mismo que en el mundo real,
       F            G           C  Am
No  pense que algo bueno fuera amar

A
Y cuando lo
Dm
Tuve y perdí
   Am
Pensé que era el fin
    E
Pensé que era el fin

E---------------I
B---------------I
G---------------I
D-----------0---I
A---------------I
E---0-4-7-------I

      C
Yo lo tuve una vez
G           Am
Y ahora se que fallo
F           G        C
Y por eso quiero repetir
            G
Por que si que yo naci
     Am
Para el amor
 F   G
Tu amor

E-0-1-2-1I
B-1-1-1-1I     X2
G-2-2-2-2I

(esta parte va con los mismos
Acordes que arriba)

Hay amor
El amor que yo les di
Es un triple de fe conceptual
Hay amor
El amor que recibí
Es un simple esperpento emocional

Y cuando lo
supe vivir
Ya no estaba aquí
Ya no estaba aquí


D-----------0---I
A---------------I
E---0-4-7-------I


Yo lo tuve una vez
Y ahora se que fallo
Y por eso quiero repetir
Por que si que yo naci
Para el amor
Tu amor

E-0-1-2-1I
B-1-1-1-1I     X2
G-2-2-2-2I

Solo
E-5-5-- -5------5-------I
B-5-5------5-------555--I
G------------5-----555--I
D---------------------7-I
A---------------------7-I
E-----------------------I

E-----5-------5-------I
B-------5-------555--5I
G----------5----555--5I
D---------------------I
A---------------------I
E---------------------I

E---- --------------------I
B--5h6h5----5-------------I
G---------7-----7-5-4-5---I

E---- ---------------------I
B--------------------------I
G--5--5-4-5-7-5-4-5-4-5----I

E---- -------------------I
B-5-5-5-5-5-5h6-5---5-5--I
G-----------------7------I

E---5- ---7------8-----7---5--555I
B-5--5-5----5-5-----5----5-------I
G--------------------------------I

E-0-0------1-0-----0-0----5---5-55555/I
B-1-1------1--1----1-1----5---5-55555/I
G-2-2------2--2----2-2----5---5-55555/I
D-2-2------2--2----2-2----7---7-77777/I

E---- -----------------------------------I
B-------------------5h6h5-----5-----------I
G---5-5-5h7-5-4-5-----------7----7-5-4---I

E---- -------------------I
B------------------------I
G--5-5-5h7-5-4-5-4-5-----I
D--------------------3-5-I

E-0-1-2-1I
B-1-1-1-1I     X2
G-2-2-2-2I


Hay amor
El amor que tu me das
Puede ser
Puede ser el de verdad
Que tu eres mi fiel continuara

Y cuando
pregunten por mi
diles que ahora si
diles que ahora si

Yo lo tuve una vez
Y ahora se que fallo
Y por eso quiero repetir
Por que si
por que ahora se
que fayo
Y por eso quiero repetir
Por que si
por que ahora se
que fayo

Y por eso quiero repetir
Por que si
Que yo naci
Para el amor
Tu amor

Así sierra la canción
Am
--0
--1
--2
--2
--0

Acorde sugerido para C

C

3
1
0
2
3

Pues la verdad no se por que nadie
Ah querido transcribir canciones
De este grupo que es una buena
Banda de pop
Bueno dudas y sugerencias
Kyorem_vs@

            
            
Suggest correction
Creating personal tab
Creating personal tab
You can edit any tab online and save it as your Personal.

You can edit, replace or remove any tab part or add personal notes – all changes will be seen only by you.

Personal tabs can be accessed anytime from any device, even offline.
Learn more »
Give kudos to tab author, rate the tab!
1 2 3 4 5
comments
print report bad tab
guest
Wanna post a correction for this tab? Suggest correction