Oops, an error
Loading. Please wait.
We have an official Bubbly tab made by UG professional guitarists. Check out the tab »
×

Bubbly tab

version 6
version 6

Whole song

Interactive

25,878 views 1 this week
2 commentsread comments
1 2 3 4 5
2 more votes to show rating
add to favorites
×
Save as Personal and add changes to this tab that will be seen only by you. Learn more ›
×
You can save this tab as Personal to edit and correct it or add notes. All changes will be seen only by you. Learn more »
launch autoscroll
font size
0
reset
how to read this tab
guitar tuner
edit
Autoscroll
slow
fast
+/-
esc
set tempo
stop
eyy guys this is a very easy song so chek it out!
Bubbly-colbie caillat.
capo 2nd fret
BTW im sorry i cannot figure out what the second chord is on the chorus but it is the
chord as the second part in the verse if that helps you i just couldnt figure out what it
called becausethis was done by ear

email lil_mauritian@hotmail.com if u wanna no more
peace

INTRO

E------3--------------------------------------3---------------------------------|
A------2------------2-------------3-----------2---------------------------------|
D------0------------0-------------2-----------0---------------------------------|
G------0----0-------2-----2-------0-----0-----0--0------------------------------|
B------3----0-------3-----3-------1-----1-----0--0------------------------------|
E-------------------------------------------------------------------------------|
                                       Will you count me in?
E------3--------------------------------------3---------------------------------|
A------2------------2-------------3-----------2---------------------------------|
D------0------------0-------------2-----------0---------------------------------|
G------0----0-------2-----2-------0-----0-----0--0------------------------------|
B------3----0-------3-----3-------1-----1-----0--0------------------------------|
E-------------------------------------------------------------------------------|

VERSE
I've been awake for a while now you've got me feelin like a child now
E------3--------------------------------------3---------------------------------|
A------2------------2-------------3-----------2---------------------------------|
D------0------------0-------------2-----------0---------------------------------|
G------0----0-------2-----2-------0-----0-----0--0------------------------------|
B------3----0-------3-----3-------1-----1-----0--0------------------------------|
E-------------------------------------------------------------------------------|
cause every time I see your bubbly face I get the tinglies in a silly place
E------3--------------------------------------3---------------------------------|
A------2------------2-------------3-----------2---------------------------------|
D------0------------0-------------2-----------0---------------------------------|
G------0----0-------2-----2-------0-----0-----0---------------------------------|
B------3----0-------3-----3-------1-----1-----0---------------------------------|
E-------------------------------------------------------------------------------|

CHORUS

G
It starts in my toes

and I crinkle my nose
C
where ever it goes I always know
G
that you make me smile

please stay for a while now
C
just take your time
G
where ever you go


  (Riff played during chords)

E--------------------------------------------|
A--------------------------------------------|
D--------------------------------------------|
G-4-----4-----2-----2-----5------5----4---4--|
B---3--3--3-----3--3--3-----3--3---3---3-3-3-|
E-----3----------2------------3---------3----|


VERSE
The rain is fallin on my window pane but we are hidin in a safer place
E------3--------------------------------------3---------------------------------|
A------2------------2-------------3-----------2---------------------------------|
D------0------------0-------------2-----------0---------------------------------|
G------0----0-------2-----2-------0-----0-----0--0------------------------------|
B------3----0-------3-----3-------1-----1-----0--0------------------------------|
E-------------------------------------------------------------------------------|
under covers stayin dry (*safe) and warm You give me feelins that I adore
E------3--------------------------------------3---------------------------------|
A------2------------2-------------3-----------2---------------------------------|
D------0------------0-------------2-----------0---------------------------------|
G------0----0-------2-----2-------0-----0-----0--0------------------------------|
B------3----0-------3-----3-------1-----1-----0--0------------------------------|
E-------------------------------------------------------------------------------|

CHORUS
G
It starts in my toes

make me crinkle my nose
C
where ever it goes
G
i always know
G
that you make me smile

please stay for a while now
C
just take your time
G
where ever you go

E--------------------------------------------|
A--------------------------------------------|
D--------------------------------------------|
G-4-----4-----2-----2-----5------5----4---4--|
B---3--3--3-----3--3--3-----3--3---3---3-3-3-|
E-----3----------2------------3---------3----|


INTERLUDE

What am I gonna say when you make me feel this way I just........mmmmmm
E---------------------------------------------------------------------|
A---2--2--2--2------------------------------------------2--2----3-----|
D---0--0--0--0-----5--5--5--5-----7--7--7--7---5--5-----0--0----2-----|
G---2--2--2--2-----5--5--5--5-----7--7--7--7---5--5-----2--2----0-----|
B---3--3--3--3-----5--5--5--5-----7--7--7--7---5--5-----3--3----1-----|
E---------------------------------------------------------------------|

CHORUS
G
It starts in my toes

make me crinkle my nose
C
where ever it goes
G
i always know
G
that you make me smile

please stay for a while now
C
just take your time
G
where ever you go
E--------------------------------------------|
A--------------------------------------------|
D--------------------------------------------|
G-4-----4-----2-----2-----5------5----4---4--|
B---3--3--3-----3--3--3-----3--3---3---3-3-3-|
E-----3----------2------------3---------3----|


( MM BA DOO DE BAH BIT) lol
E------3--------------------------------------3---------------------------------|
A------2------------2-------------3-----------2---------------------------------|
D------0------------0-------------2-----------0---------------------------------|
G------0----0-------2-----2-------0-----0-----0--0------------------------------|
B------3----0-------3-----3-------1-----1-----0--0------------------------------|
E-------------------------------------------------------------------------------|

E------3--------------------------------------3---------------------------------|
A------2------------2-------------3-----------2---------------------------------|
D------0------------0-------------2-----------0---------------------------------|
G------0----0-------2-----2-------0-----0-----0--0------------------------------|
B------3----0-------3-----3-------1-----1-----0--0------------------------------|
E-------------------------------------------------------------------------------|

VERSE
I've been asleep for a while now You tucked me in just like a child now
E------3--------------------------------------3---------------------------------|
A------2------------2-------------3-----------2---------------------------------|
D------0------------0-------------2-----------0---------------------------------|
G------0----0-------2-----2-------0-----0-----0--0------------------------------|
B------3----0-------3-----3-------1-----1-----0--0------------------------------|
E-------------------------------------------------------------------------------|
Cause every time you hold me in your arms I'm comfortable enough to feel your warmth
E------3--------------------------------------3---------------------------------|
A------2------------2-------------3-----------2---------------------------------|
D------0------------0-------------2-----------0---------------------------------|
G------0----0-------2-----2-------0-----0-----0---------------------------------|
B------3----0-------3-----3-------1-----1-----0---------------------------------|
E-------------------------------------------------------------------------------|


CHORUS
G
It starts in my toes

and I crinkle my nose
C
where ever it goes I always know
G
that you make me smile

please stay for a while now
C
just take your time
G
where ever you go

E-------------------------------------------

A-------------------------------------------

D-------------------------------------------

G-4-----4-----2-----2-----5------5----4---4-

B---3--3--3-----3--3--3-----3--3---3---3-3-3

E-----3----------2------------3---------3---


ENDING

Where ever,                     where ever,               where ever you go
E-----3---------------------------------------------------------------------------3-|
A--------------------------------2------------------------3-------------------------|
D-----------------------------------------------------------------------------------|
G--------------------7--------------------------7-----------0---0----------5---4----|
B-------3---3------8---8-----------3---3------7---7-----------------5---3-----------|
E---------3------7-------------------2------5-----------------3---------------------|


Where ever,                     where ever,               where ever you go
E---------------------------------------------------------------------------------3-|
A--------------------------------2------------------------3-------------------------|
D-----------------------------------------------------------------------------------|
G--------------------7--------------------------7-----------0---0----------5---4----|
B-------3---3------8---8-----------3---3------7---7-----------------5---3-----------|
E---------3------7-------------------2------5-----------------3---------------------|

OO Where ever you go,         I'll always know
E---------------------------------------------------------------------------------3-|
A--------------------------------2------------------------3-------------------------|
D-----------------------------------------------------------------------------------|
G--------------------7--------------------------7-----------0---0----------5---4----|
B-------3---3------8---8-----------3---3------7---7-----------------5---3-----------|
E---------3------7-------------------2------5-----------------3---------------------|

Cause you make me smile here, just for a while
E----3----------------------------------------------------------------------------3-|
A--------------------------------2------------------------3-----------------------2-|
D---------------------------------------------------------------------------------0-|
G--------------------7--------------------------7-----------0---0----------5---4--0-|
B-------3---3------8---8-----------3---3------7---7-----------------5---3---------3-|
E---------3------7-------------------2------5-----------------3-------------------3-|

            
            
Suggest correction
Creating personal tab
Creating personal tab
You can edit any tab online and save it as your Personal.

You can edit, replace or remove any tab part or add personal notes – all changes will be seen only by you.

Personal tabs can be accessed anytime from any device, even offline.
Learn more »
Give kudos to tab author, rate the tab!
1 2 3 4 5
comments
print report bad tab
2 comments total.
+1 reply
therocker45 30 Dec 23, 2008 01:42 AM

The second chord is Gmaj7, I believe

0 reply
isilive 10 Apr 11, 2010 08:46 AM

Yes, that should be Gmaj7. Because its an Amaj7 if you play without capo - and both sounds right.

guest
You may want to rate the tab now too:
select rating
Wanna post a correction for this tab? Suggest correction