Oops, an error
Loading. Please wait.

What You Got tab

version 1
version 1

Whole song

Interactive

20,056 views 1 this week
no commentswrite comment
1 2 3 4 5
2 more votes to show rating
add to favorites
×
Save as Personal and add changes to this tab that will be seen only by you. Learn more ›
×
You can save this tab as Personal to edit and correct it or add notes. All changes will be seen only by you. Learn more »
launch autoscroll
font size
0
reset
how to read this tab
guitar tuner
edit
Autoscroll
slow
fast
+/-
esc
set tempo
stop
Author
Difficulty
play this riff throughout the whole song

|------------------|---------------|-------------|------------|
|-9------9------9--|-8-----8-----8-|-6---6----6--|-6---6----6-|
|-10-10----10----10|-8-8-----8----8|-6-6---6----6|-6-6---6---6|
|-10---10----10----|-10--10----10--|-4--4----4---|-8--8----8--|
|------------------|---------------|-------------|------------|
|-8----------------|-8-------------|-4-----------|-6----------|

so with the words, it goes like this:

"I peeped you on the phone..."
|------------------|
|-9------9------9--|
|-10-10----10----10|
|-10---10----10----|
|------------------|
|-8----------------|

"Just showin' off ya stones..."
|---------------|
|-8-----8-----8-|
|-8-8-----8----8|
|-10--10----10--|
|---------------|
|-8-------------|

"And notice that that pinky ring..." 
|-------------|
|-6---6----6--|
|-6-6---6----6|
|-4--4----4---|
|-------------|
|-4-----------|

"is bright enough baby..."
|-------------|
|-6---6----6--|
|-6-6---6----6|
|-8--8----8---|
|-------------|
|-6-----------|

I know you're not alone
But I could just be wrong
The way them fellas houndin' and sizin' you up baby
And I like the way you take advantage of
Every man you love
I see, and I know your game girl
But I don't mind if ya come and play with us
Just don't talk too much
I see, I see it so you don't have to say a word
Yeah those guys wanna come treat ya right

Cause you're sweeter than apple pie
Everything that you want you got
Girl you know that you need to stop
Most beautiful thing in sight
Always takin' on the spotlight
Always in the club lookin' hot
Girl you know that you need to stop

Always talkin' bout what you got (Eh)
Always talkin' bout what you got (Eh)
Always talkin' bout what you got (Eh)
Girl you know that you need to stop
Always talkin' bout what you got (Eh)
Always talkin' bout what you got (Eh)
Always talkin' bout what you got (Eh)
Girl you know that you need to stop

Girl I can tell you want something to love
That's why you hold on to everything that pass you by
Can't resist girl and I can't lie
And I can tell if you are here for me
Or everybody watchin' you shake from left to right
The way you move got me hypnotized
The way you take advantage of every man you love
I see, and I know your game girl
But I don't mind if ya come and play with us
Just don't talk too much
I see, I see it so you don't have to say a word
Yeah those guys wanna come treat ya right

hit me up if any question at ma AIM : Puertocarino
<3 elly
HaPPY JAMMIN!


            
            
Suggest correction
Creating personal tab
Creating personal tab
You can edit any tab online and save it as your Personal.

You can edit, replace or remove any tab part or add personal notes – all changes will be seen only by you.

Personal tabs can be accessed anytime from any device, even offline.
Learn more »
Give kudos to tab author, rate the tab!
1 2 3 4 5
comments
print report bad tab
guest
You may want to rate the tab now too:
select rating
Wanna post a correction for this tab? Suggest correction