Oops, an error
Loading. Please wait.

Just Got Wicked Acoustic tab

version 4
version 4

Whole song

by Cold
3,108 views 3 this week
1 commentread comment
1 2 3 4 5
x 4
add to favorites
×
Save as Personal and add changes to this tab that will be seen only by you. Learn more ›
×
You can save this tab as Personal to edit and correct it or add notes. All changes will be seen only by you. Learn more »
launch autoscroll
font size
0
reset
how to read this tab
guitar tuner
edit
Autoscroll
slow
fast
+/-
esc
set tempo
stop
#----------------------------------PLEASE NOTE--------------------------------#
#This file is the author's own work and represents their interpretation of the#
#song. You may only use this file for private study, scholarship, or research.#
#-----------------------------------------------------------------------------#
#-- File created with Instab - http://www.pconline.com/~smcarey/instab.html --#
#-----------------------------------------------------------------------------#


Cold-Just Got Wicked(acoustic)
-Standard Tuning-standard C to play along with song
-This is a sweet studio acoustic track i found last night,
I keep my acoustic guitar in standard D tuning, and i know Cold
plays in standard C-Inlyghtened1


-Intro-
----------0-0-0-0-0-0-0-0-0-0----------------|
--------x-5-5-5-5/4-4-4-4/3-3p0--------------|
--------x-0-0-0-0-0-0-0-0-0-0----------------|
----2-2-x------------------------------------|
----2-2-x------------------------------------|
----0-0-x------------------------------------|

-Verses/Outro Chorus-
---------------------------------|---------------------------|
--------x------------------------|------x------x-----x-------|
--------x------------------------|------x------x-----x-------|
----2-2-x-4-4-4-4-5-5-5-5-7-7p0--|--2-2-x4-4-4-x5-5-5x7-7-7--|
----2-2-x-4-4-4-4-5-5-5-5-7-7p0--|--2-2-x4-4-4-x5-5-5x7-7-7--|
----0-0-x-2-2-2-2/3-3-3-3/5-5p0--|--0-0-x2-2-2-x3-3-3x5-5-5--|

-Chorus-
-------------------------------------------------------|
-----------0-0-0-0-0-0-0----------0-0-0-0-0-0-0--------|
-----------0-0-0-0-0-0-0----------0-0-0-0-0-0-0--------|
-----------7-7-7-7-7-7-7----------7-7-7-7-7-7-7--------|
-------5-5-5-5-5-5-5-5-5------5-5-5-5-5-5-5-5-5--------|
--/7-7-----7-7-7-7-7-7-7--3-3-----3-3-3-3-3-3-3--------|

-Second guitar Chorus-
-------------------------------------------------|
---------10-----10-----------10-----10p7---------|
-------7----7------7-------7----7--------7-------|
-----9--------9------9---7--------7--------7-----|
-------------------------------------------------|
-------------------------------------------------|

-Breakdown-(right before "123 here i come with the wicked")
-----------------------------------------------12*-----|
---------5*------------------------------------12*-----|
-----------5*-x-----xx----------x----x-xxxxxx----------|
----2-2-------x2-2--xx2-2-------x2-2-x-xxxxxx----------|
----2-2-------x2-2--xx2-2-------x2-2-x-xxxxxx----------|
----0-0-------x0-0--xx0-0-------x0-0-x-xxxxxx----------|

            
            
Suggest correction
Creating personal tab
Creating personal tab
You can edit any tab online and save it as your Personal.

You can edit, replace or remove any tab part or add personal notes – all changes will be seen only by you.

Personal tabs can be accessed anytime from any device, even offline.
Learn more »
comments
print report bad tab
1 comment total.
0 reply
stanguy98 41 Dec 16, 2006 05:46 AM

Pretty good tab except intro should go like this:
---------------------------------------------|
--------x--0-0-0-0-0-0-0-0-0-0-0-------------|
--------x--4-4-4-4/3-3-3-3/2-2p0-------------|
----2-2-x------------------------------------|
----2-2-x------------------------------------|
----0-0-x------------------------------------|

guest
Wanna post a correction for this tab? Suggest correction