Oops, an error
Loading. Please wait.

Suffocate bass

version 3
version 3

Whole song

Interactive

by Cold
1,613 views 1 this week
1 commentread comment
1 2 3 4 5
1 last vote to show rating
add to favorites
×
Save as Personal and add changes to this tab that will be seen only by you. Learn more ›
×
You can save this tab as Personal to edit and correct it or add notes. All changes will be seen only by you. Learn more »
launch autoscroll
font size
0
reset
guitar tuner
edit
Autoscroll
slow
fast
+/-
esc
set tempo
stop
Author
-------------------------------------------------------------------------------
			     SUFFOCATE - Cold
-------------------------------------------------------------------------------

Tabbed By : Xak
e-mail: cateringtocowards@gmail.com

Tuning: Half-step down

The rhythms may be a bit off, but I'm pretty sure the notes are right. Not the most fun 
to play, but thats alright. Enjoy!

Verse:
0:09
G|--------------------------------------------------------------------|
D|--------------------------------------------------------------------|
A|--------------0-0--0--0-0-------------------------------------------|
E|-2-2--2--2-2----------------0-0--0--0-0--2-2--2--2-2----------------|             x4

Chorus:
0:48
G|-------------------------------------------------------------|
D|-------------------------------------------------------------|
A|-0-0-0-0-0-0-0-0----------------------------------2-2-0-2----|
E|------------------0-0-0-0-0-0-0-0-2-2-2-2-2-2-2-2---------0--|             x2

Verse x4

Chorus x3

Bridge:
2:04
G|-------------------------------------------------------|
D|-------------------------------------------------------|
A|--------------2-2-2-2-2-2-0-0-0-0-0-0-0-0-0-0-0-0------|
E|-4-4-4-4-4-4-------------------------------------------| x4

Chorus x3

Outro:
3:21
G|-----------------------|
D|-----------------------|
A|-0---------------------|
E|-----------0--------2--|

===============================================================================

            
            
Suggest correction
Creating personal tab
Creating personal tab
You can edit any tab online and save it as your Personal.

You can edit, replace or remove any tab part or add personal notes – all changes will be seen only by you.

Personal tabs can be accessed anytime from any device, even offline.
Learn more »
Give kudos to tab author, rate the tab!
1 2 3 4 5
comments
print report bad tab
1 comment total.
0 reply
Bambi Slaughter 40 Mar 12, 2008 09:59 AM

good job dude

guest
You may want to rate the tab now too:
select rating
Wanna post a correction for this tab? Suggest correction