Oops, an error
Loading. Please wait.

Forever Now chords

version 3
version 3

Whole song

  • I believe this one is slightly more accurate than ... Show more

Interactive

727 views 21 this week
2 commentsread comments
1 2 3 4 5
x 3
add to favorites
×
Save as Personal and add changes to this tab that will be seen only by you. Learn more ›
×
You can save this tab as Personal to edit and correct it or add notes. All changes will be seen only by you. Learn more »
launch autoscroll
font size
0
reset
transpose
0
reset
simplify chords
display chords
guitar tuner
edit
Autoscroll
slow
fast
+/-
esc
set tempo
stop
Author
About this tab version
I believe this one is slightly more accurate than the others. Give it a go and see. Was this info helpful? Yes No
Strumming
There is no strumming pattern for this song yet. and get +5 IQ
[INTRO]
  A          B            C#m7                A          B            C#m7
E|---------|------------|-------------|-----|---------|-------------|-----------|
B|-------7-|------------|-------------|-----|-------7-|-------------|-----------|
G|----6----|--8------4--|-------------|-----|----6----|--8---------4|-----------|
D|-7-------|------6-----|--4---6---6--|-----|-7-------|------6--4---|-6----6--4-|
A|---------|------------|-------------|-----|---------|-------------|-----------|
E|---------|------------|-------------|-----|---------|-------------|-----------|
   C#m      A          B                C#m7  Bm         E    E/G#
E|--------|----------|----------------|-5--------------|-------------------|
B|--------|-------7--|-----------5--7-|----8-----------|----------5--------|
G|--------|----6-----|-8---8--8-------|-------6--------|-------6------8----|
D|-6------|-7--------|----------------|----------6--4--|-------------------|
A|-----6--|----------|----------------|----------------|-7-----------------|
E|--------|----------|----------------|----------------|-------------------|

   A              B
E|--------------|--------------------|
B|------------7-|-------------5---7--|
G|-6------6-----|-8--8--8--8---------|
D|----7---------|--------------------|
A|--------------|--------------------|
E|--------------|--------------------|


[VERSE 1] 


E 
Taking her seat at the bar
E                         A  B
She don't talk to anyone~~~~~~
E
Plane leaving soon for afar
                     E  B    Bsus4  B  C#m
Where she don't know anyone~~~~~~~~~
                   D
She thinks of her precious time
C#m                 B
There's no-one she leaves behind
           B         A     A/G#  F#m7
Who could change her mind

                     A        B    F#m7
Is this the way it's gonna be forever
                     A        B    F#m7
Is this the way it's gonna be forever
                     A
Is this the way it's gonna be
   B    E   Esus4  E
Forever now


[CHORUS]
E
Take a whole life's lonliness
A       B           E
Wrap it up in some tenderness
A       B           E
Send it off to some emptiness
A    B       E    Esus4  E
With all my love

          E
It's only you and me
A            B         E
There'll be nothing we need to see
A    B             F#m
Only one thing can set you free
A   B      E   Esus4  E
Is all my love


[VERSE 2] 

E
Making his way down the stairs
E                               A B
He can't help but looking back
E                          E     B     Bsus4  B  C#m
Thinks of the things that they shared
                    D
There'll be no more turning back
C#m              B
He thinks of the day they met
                    B       A    
The words that she said of love
C#m      B
He just can't forget


F#m7              A         B  F#m7                 
Just the way they wanna be forever
                  A         B  F#m7
Just the way they wanna be forever
                 A
Tell me it will always be
   B    E    Esus4 E
Forever now


[CHORUS]
                     E
Take a whole life's lonliness
A       B            E
Wrap it up in some tenderness
A       B            E
Send it off to some emptiness
A     B      E    Esus4 E
With all my love
          E
It's only you and me
A            B         E
There'll be nothing we need to see
A    B             F#m
Only one thing can set you free
A   B      E    Esus4  E
Is all my love
           E
It's only you and me
A            B          E
There'll be nothing we need to see
E                  F#m
Only one thing can set you free
A   B       E       
Is all our love, oh yeah oh yeah


[SOLO]

A - B - C#m (x3)
A - B - E

            
            
Suggest correction
Creating personal tab
Creating personal tab
You can edit any tab online and save it as your Personal.

You can edit, replace or remove any tab part or add personal notes – all changes will be seen only by you.

Personal tabs can be accessed anytime from any device, even offline.
Learn more »
Give kudos to tab author, rate the tab!
1 2 3 4 5
comments
print report bad tab
2 comments total.
0 reply
Ftfatbob6 10 Jan 04, 2017 09:50 PM

Yeah it's good, makes me Rock!

0 reply
butterworthja2 10 Aug 12, 2017 08:53 PM

E|-----------------------------------------|
B|------7--------5-7-10\9-9----------------|
G|-2-2/6-/8~-8-8-----------6------9-9p8h9p6|
D|-----------------------------------------|
A|-----------------------------------------|
E|--------------------------0-2-4~---------|

2nd to last bar should be like this . other wise you have nailed it .

guest
You may want to rate the tab now too:
select rating
Wanna post a correction for this tab? Suggest correction