Oops, an error
Loading. Please wait.

Something Is Not Right With Me bass

version 1
version 1

Whole song

Interactive

6,903 views 12 this week
1 commentread comment
1 2 3 4 5
x 4
add to favorites
×
Save as Personal and add changes to this tab that will be seen only by you. Learn more ›
×
You can save this tab as Personal to edit and correct it or add notes. All changes will be seen only by you. Learn more »
launch autoscroll
font size
0
reset
guitar tuner
edit
Autoscroll
slow
fast
+/-
esc
set tempo
stop
Author
Difficulty
-------------------------------------------------------
    SOMETHING IS NOT RIGHT WITH ME - Cold War Kids
-------------------------------------------------------

Tabbed by: Brandon
e-mail: brandonvin@gmail.com

Tuning: standard EADG

This song is quite simple, there are only two different bass riffs.

[Main Riff]

G|--------------------------|--------------------------|
D|-----9-----9-----9-----9\7|-----7-----7-----7-----7--|
A|--------------------------|--------------------------|
E|--7-----7-----7-----7-----|--5-----5-----5-----5-----|
    1  +  2  +  3  +  4  +     1  +  2  +  3  +  4  +

G|--------------------------|--------------------------|
D|-----2-----2-----2-----2/9|-----9-----9-----9-----9--|
A|--------------------------|--------------------------|
E|--0-----0-----0-----0-----|--7-----7-----7-----7-----|
    1  +  2  +  3  +  4  +     1  +  2  +  3  +  4  +

Play this riff seven times, then rest for eight measures while the piano plays. 

There's a slide on the E string during the piano part, from open to 7th fret.
(It is 4 measures into the piano part)


[Bridge]
("Reach behind they could hardly find their spines")

Thanks to emerica10570 for corrections on this part. When I first
made this tab, I thought all the intervals were octaves,
but it turns out this part uses major 10ths and 11ths instead of octaves.

G|----8-8-----------|---6-6-----------|---2-2-----------|---8-8-----------|
D|------------------|-----------------|-----------------|-----------------|
A|------------------|-----------------|-----------------|-----------------|
E|--7-------------\-|-5-------------\-|-0-------------/-|-7---------------|
    1 + 2 + 3 + 4 +   1 + 2 + 3 + 4 +   1 + 2 + 3 + 4 +   1 + 2 + 3 + 4 +


Then play the main riff 5 more times. At the 5th time,
the drums stop playing, and the band slows down and fades out.



/  Slide Up
\  Slide Down
==================================================================

            
            
Suggest correction
Creating personal tab
Creating personal tab
You can edit any tab online and save it as your Personal.

You can edit, replace or remove any tab part or add personal notes – all changes will be seen only by you.

Personal tabs can be accessed anytime from any device, even offline.
Learn more »
comments
print report bad tab
1 comment total.
+1 reply
emerica10570 1,878 Apr 11, 2010 11:03 AM

Bridge:

G|--8-8\\\|--6-6\\\|--2-2---|--8-8---|
D|--------|--------|--------|--------|
A|--------|--------|--------|--------|
E|7-------|5-------|0----///|7-------|

guest
You may want to rate the tab now too:
select rating
Wanna post a correction for this tab? Suggest correction