Oops, an error
Loading. Please wait.
We have an official Adventure Of A Lifetime tab made by UG professional guitarists. Check out the tab »
×
17,923 views 48 this week
no commentswrite comment
1 2 3 4 5
x 7
add to favorites
×
Save as Personal and add changes to this tab that will be seen only by you. Learn more ›
×
You can save this tab as Personal to edit and correct it or add notes. All changes will be seen only by you. Learn more »
launch autoscroll
font size
0
reset
how to read this tab
guitar tuner
backing track
0:00
0:00
edit
Autoscroll
slow
fast
+/-
esc
set tempo
stop
Author
Difficulty
[Intro]

                                                                                  
e|17p12-17p12---12-----------------|    e|15p12-15p12---12-----------------|     
B|-----------15----15p13-----------|    B|-----------15----15p13-----------|     
G|----------------------14p12-14-12| x2 G|----------------------14p12-14-12|     
D|---------------------------------|    D|---------------------------------|     
A|---------------------------------|    A|---------------------------------|     
E|---------------------------------|    E|---------------------------------|       |
                                                                                   | x4
e|15p12-15p12---12------------19-20|                                               |
B|-----------15----15p13-----------|                                             
G|----------------------14p12------|                                             
D|---------------------------------|                                             
A|---------------------------------|                                             
E|---------------------------------|                                             
                                                                                 

[Verse 1]

"Turn your magic on, and then she'd say..."
e|----------------------------17--------------------------------------|
A|17-17-17-17-X-15-X-17-X-X--------17-17-17-17-15-15-15-15-15-15-15-15|
D|14-14-14-14-X-14-X-14-X-X--------16-16-16-16-16-16-16-16-16-16-16-16| x10
G|--------------------------------------------------------------------|
B|--------------------------------------------------------------------|
E|--------------------------------------------------------------------|

fading out...


[Chorus] 

The guitar starts here :"That kind of love again..."
                                        
e|17p12-17p12---12-----------------|    e|15p12-15p12---12-----------------|     
B|-----------15----15p13-----------|    B|-----------15----15p13-----------|     
G|----------------------14p12-14-12| x2 G|----------------------14p12-14-12|     
D|---------------------------------|    D|---------------------------------|     
A|---------------------------------|    A|---------------------------------|     
E|---------------------------------|    E|---------------------------------|           |
                                                                                       |x2      
e|15p12-15p12---12------------19-20|                                                   |
B|-----------15----15p13-----------|                                             
G|----------------------14p12------|                                             
D|---------------------------------|                                             
A|---------------------------------|                                             
E|---------------------------------|                                             
                                        

Verse 2:
"Said I can't go on, not in this way..."
e|----------------------------17--------------------------------------|
A|17-17-17-17-X-15-X-17-X-X--------17-17-17-17-15-15-15-15-15-15-15-15|
D|14-14-14-14-X-14-X-14-X-X--------16-16-16-16-16-16-16-16-16-16-16-16| x6
G|--------------------------------------------------------------------|
B|--------------------------------------------------------------------|
E|--------------------------------------------------------------------|

fading out...


[Bridge] 

guitar starts after: "We are diamonds taking shape, we are diamonds taking shape"
                                                                                 
e|17p12-17p12---12-----------------|    e|15p12-15p12---12-----------------|     
B|-----------15----15p13-----------|    B|-----------15----15p13-----------|     
G|----------------------14p12-14-12| x2 G|----------------------14p12-14-12|     
D|---------------------------------|    D|---------------------------------|     
A|---------------------------------|    A|---------------------------------|     
E|---------------------------------|    E|---------------------------------|     |
                                                                                 |x6
e|15p12-15p12---12------------19-20|                                             |
B|-----------15----15p13-----------|                                             
G|----------------------14p12------|                                             
D|---------------------------------|                                             
A|---------------------------------|                                             
E|---------------------------------|                                             
                                                                                 
 
[Outro]

"Woo hoo (Woo hoo)..."
e|13--13--13--13--13-12--10--10--10--10-8-10-10s12-------------8-10-10s12---------------|
B|--------------------------------------------------10--10--10------------10--10--10--10|
G|--------------------------------------------------------------------------------------| x2
D|--------------------------------------------------------------------------------------|
A|--------------------------------------------------------------------------------------|
E|--------------------------------------------------------------------------------------|

Intro
Verse 1
Chorus
Verse 2
Chorus
Bridge 
Outro


*****************

| p   pull-off
| s   slide

*****************

            
            
Suggest correction
Creating personal tab
Creating personal tab
You can edit any tab online and save it as your Personal.

You can edit, replace or remove any tab part or add personal notes – all changes will be seen only by you.

Personal tabs can be accessed anytime from any device, even offline.
Learn more »
comments
print report bad tab
guest
You may want to rate the tab now too:
select rating
Wanna post a correction for this tab? Suggest correction