Oops, an error
Loading. Please wait.
We have an official Every Teardrop Is A Waterfall tab made by UG professional guitarists. Check out the tab »
×
277 views 1 this week
1 commentread comment
1 2 3 4 5
1 last vote to show rating
add to favorites
×
Save as Personal and add changes to this tab that will be seen only by you. Learn more ›
×
You can save this tab as Personal to edit and correct it or add notes. All changes will be seen only by you. Learn more »
launch autoscroll
font size
0
reset
how to read this tab
guitar tuner
backing track
0:00
0:00
edit
Autoscroll
slow
fast
+/-
esc
set tempo
stop
-------------------------------------------------------------------------------
                             Every Teardrop Is A Waterfall - Coldplay
-------------------------------------------------------------------------------
Tabbed by: matshoi
E-mail: matshoi@hotmail.com

Tuning: Standard
Note: Capo 2nd fred
The tabs are related to the potition of the capo
Example: capo is in 2nd fred so a note of the 2nd in the tabs, is actualy a note of the 4th fred.

e|-|-33-2-222-33-2-222-55-3-333-55-3-333-|-------------------------------------------|
B|-|-33-3-333-33-3-333-33-3-333-33-3-333-|--------00-3-333-00-3-333------------------|
G|-|-00-0-000-00-0-000-00-0-000-00-0-000-|--------00-0-000-00-0-000------------------|
D|-|-22-0-000-22-0-000-00-0-000-00-0-000-|--(7X)--22-2-222-22-2-222------------------|
A|-|-22-0-000-22-0-000-00-0-000-00-0-000-|--------22-2-222-22-2-222------------------|
E|-|-------------------33-3-333-33-3-333-|-------------------------------------------|
     DD U UDU DD U UDU DD U UDU DD U UDU          DD U UDU DD U UDU

e|-|-17P12-12-12-14-12-14-12----12-14-|----------------------------------------------|
B|-|-------------------------14-------|-(4X)-----------------------------------------|
G|-|----------------------------------|----------------------------------------------|
D|-----------------------------------------------------------------------------------|
A|-----------------------------------------------------------------------------------|
E|-----------------------------------------------------------------------------------|

e|-|-33-2-222-33-2-222-55-3-333-55-3-333-|-------------------------------------------|
B|-|-33-3-333-33-3-333-33-3-333-33-3-333-|--------00-3-333-00-3-333------------------|
G|-|-00-0-000-00-0-000-00-0-000-00-0-000-|--------00-0-000-00-0-000------------------|
D|-|-22-0-000-22-0-000-00-0-000-00-0-000-|--(7X)--22-2-222-22-2-222------------------|
A|-|-22-0-000-22-0-000-00-0-000-00-0-000-|--------22-2-222-22-2-222------------------|
E|-|-------------------33-3-333-33-3-333-|-------------------------------------------|
     DD U UDU DD U UDU DD U UDU DD U UDU          DD U UDU DD U UDU
 
e|-|-17p12-12-12-14-12-14-12----12-14-|----------------------------------------------|
B|-|-------------------------14-------|-(4X)-----------------------------------------|
G|-|----------------------------------|----------------------------------------------|
D|-----------------------------------------------------------------------------------|
A|-----------------------------------------------------------------------------------|
E|-----------------------------------------------------------------------------------|

e|--00-0-000-00-0-000-33-3-333-33-3-333-------------------33-3-333-33-3-333----------|
B|--22-2-222-22-2-222-11-1-111-11-1-111-00-0-000-00-0-000-11-1-111-11-1-111----------|
G|--33-3-333-33-3-333-00-0-000-00-0-000-00-0-000-00-0-000-00-0-000-00-0-000----------|
D|--22-2-222-22-2-222-22-2-222-22-2-222-22-2-222-22-2-222-22-2-222-22-2-222----------|
A|--------------------33-3-333-33-3-333-22-2-222-22-2-222-33-3-333-33-3-333----------|
E|-----------------------------------------------------------------------------------|
    DD U UDU DD U UDU DD U UDU DD U UDU DD U UDU DD U UDU DD U UDU DD U UDU 
   
e|-|-17p12-12-12-12----12p14h12----17p12-12-12-12-14-12-14-12----12-14-|-------------|
B|-|----------------14----------14----------------------------14-------|-(4X)--------|
G|-|-------------------------------------------------------------------|-------------|
D|-----------------------------------------------------------------------------------|
A|-----------------------------------------------------------------------------------|
E|-----------------------------------------------------------------------------------|

e|-|-33-2-222-33-2-222-00-2-222-00-2-222-------------------33-2-222-33-2-222-|-------|
B|-|-33-3-333-33-3-333-22-2-222-22-2-222-00-3-333-00-3-333-33-3-333-33-3-333-|-------|
G|-|-00-0-000-00-0-000-00-0-000-00-0-000-00-0-000-00-0-000-00-0-000-00-0-000-|-(4X)--|
D|-|-22-0-000-22-0-000-00-0-000-00-0-000-22-2-222-22-2-222-22-0-000-22-0-000-|-------|
A|-|-33-3-333-33-3-333-33-3-333-33-3-333-22-2-222-22-2-222-33-3-333-33-3-333-|-------|
E|-|---------------------------------------------------------------------------------|
     DD U UDU DD U UDU DD U UDU DD U UDU DD U UDU DD U UDU DD U UDU DD U UDU



************************************

| /   slide up
| \   slide down
| h   hammer-on
| p   pull-off
| ~   vibrato
| +   harmonic
| x   Mute note
| b   Bend
| pb  Pre-bend
| br  Bend release
| pbr Pre-bend release
| brb Bend release bend
| D Downstroke
| U Upstroke 

************************************

            
            
Suggest correction
Creating personal tab
Creating personal tab
You can edit any tab online and save it as your Personal.

You can edit, replace or remove any tab part or add personal notes – all changes will be seen only by you.

Personal tabs can be accessed anytime from any device, even offline.
Learn more »
Give kudos to tab author, rate the tab!
1 2 3 4 5
comments
print report bad tab
1 comment total.
0 reply
ThorHammer17 498 Sep 27, 2016 08:31 AM

Nice work on the intro.

guest
You may want to rate the tab now too:
select rating
Wanna post a correction for this tab? Suggest correction