Oops, an error
Loading. Please wait.
We have an official Fix You tab made by UG professional guitarists. Check out the tab »
×

Fix You solo tab

version 1
version 1

Solo

Whole song

133,245 views 276 this week
7 commentsread comments
1 2 3 4 5
x 38
add to favorites
×
Save as Personal and add changes to this tab that will be seen only by you. Learn more ›
×
You can save this tab as Personal to edit and correct it or add notes. All changes will be seen only by you. Learn more »
launch autoscroll
font size
0
reset
how to read this tab
guitar tuner
backing track
0:00
0:00
edit
Autoscroll
slow
fast
+/-
esc
set tempo
stop
Eb|-0-0-0-0-0-0-0-0-0-0-0-0-0-0-0-0-0--0--|
Bb|-5-5-5-5-5-5-5-5-5-5-5-5-5/12-12-12-12-|
Gb|---------------------------------------|
Db|---------------------------------------|
Ab|---------------------------------------|
Eb|---------------------------------------|

Eb|-0-0-0-0-0-0-0-0-0-0-0-0-0-0-0-0-0--0--|
Bb|-5-5-5-5-5-5-5-5-5-5-5-5-5/12-12-12-12-|
Gb|---------------------------------------|
Db|---------------------------------------|
Ab|---------------------------------------|
Eb|---------------------------------------|

Eb|-0-0-0-0-0-0-0-0-0-0-0-0-0-0-0-0-0--0--|
Bb|-5-5-5-5-5-5-5-5-5-5-5-5-5/12-12-12-12-|
Gb|---------------------------------------|
Db|---------------------------------------|
Ab|---------------------------------------|
Eb|---------------------------------------|

Eb|-0-0-0-0-0-0-0-0-0-0-0-0-|
Bb|-5-5-5-4-4-4-4-4-4-4-4-4-|
Gb|-------------------------|
Db|-------------------------|
Ab|-------------------------|
Eb|-------------------------|

Play twice



************************************

| b  Bend
| /  Slide up

************************************

            
            
Suggest correction
Creating personal tab
Creating personal tab
You can edit any tab online and save it as your Personal.

You can edit, replace or remove any tab part or add personal notes – all changes will be seen only by you.

Personal tabs can be accessed anytime from any device, even offline.
Learn more »
comments
print report bad tab
7 comments total. Showing first comments. show 1 bad comment
0 reply
Ro734 156 Nov 01, 2008 03:45 AM

did you actually see u tune down

+4 reply
jchitty 217 Nov 11, 2008 06:32 PM

why does this tab only have two stars? this is exactly how it's played. In fact, I just submitted a tab for this song thinking that no one had tabbed the end this way.

guest
You may want to rate the tab now too:
select rating
Wanna post a correction for this tab? Suggest correction