Oops, an error
Loading. Please wait.

For You bass

version 2
version 2

Whole song

Interactive

512 views 1 this week
no commentswrite comment
1 2 3 4 5
3 more votes to show rating
add to favorites
×
Save as Personal and add changes to this tab that will be seen only by you. Learn more ›
×
You can save this tab as Personal to edit and correct it or add notes. All changes will be seen only by you. Learn more »
launch autoscroll
font size
0
reset
guitar tuner
edit
Autoscroll
slow
fast
+/-
esc
set tempo
stop
Author
Difficulty
              -----------------------------------------------
                   coldplay - For You - Shiver - Bass Tab
              -----------------------------------------------

Tab by christian.ldal
email: cavb_1249@hotmail.com
bibliography: score of the song

Time: Each script is that the note will up
example:
7- = semicorchea
7-- = corchea
7---- = negra
7-------- = blanca
7---------------- = redonda
if you add a *, it is because the note is dotted

______ = ligate note

Intro: the bass enter after two Compac touched by the piano

G:-----------------|-----------------|---------------|-----------------|
D:-----------------|4----------------|---------------|-----------------|
A:2----------------|-----------------|2*-------0-----|-----------------| x2
E:-----------------|-----------------|------------4--|2----------------|

Verse 1:

G:----------------|-----------------|----------------|-----------------|
D:-----4--4*---4--|4----------------|-----4--4*------|-----------------|
A:2*--------------|-----------------|2*-----------4--|2----------------| 
E:----------------|-----------------|----------------|-----------------|

G:----------------|-----------------|-----------------|--------------|
D:-----4--4*---4--|4----------------|-----4--4*---2---|---------4----|
A:2*--------------|-----------------|2*-------------4-|2*------------| 
E:----------------|-----------------|-----------------|--------------|
repeats 2 times, but the last compac changes like this:

G:-----------------|
D:-----------------|
A:2----------------| 
E:-----------------|

Chorus:

G:-------------------4___4____4--2----1-------|
D:-------------1--4-----|----------------2----|
A:2_________2-----------|---------------------| x3
E:----------------------|---------------------|

G:-------------------4___4----------------|
D:-------------1--4-----|-----------------|
A:2_________2-----------|-----------------|
E:----------------------|-----------------|

repeats the intro: (x2)

vrse 2:

G:----------------|-----------------|----------------|-----------------|
D:-----4--4*---4--|4----------------|-----4--4*------|-----------------|
A:2*--------------|-----------------|2*-----------4--|2----------------| 
E:----------------|-----------------|----------------|-----------------|

G:----------------|-----------------|-----------------|--------------|
D:-----4--4*---4--|4----------------|-----4--4*---2---|---------4----|
A:2*--------------|-----------------|2*-------------4-|2*------------| 
E:----------------|-----------------|-----------------|--------------|
repeats 2 times, but the last compac changes like this:

G:-----------------|
D:-----------------|
A:2----------------| 
E:-----------------|

Chorus 2: 

G:-------------------4___4____4--2----1-------|
D:-------------1--4-----|----------------2----|
A:2_________2-----------|---------------------| x3
E:----------------------|---------------------|

G:-------------------4___4----------------|
D:-------------1--4-----|-----------------|
A:2_________2-----------|-----------------|
E:----------------------|-----------------|

Interlude:

G:-----------------|-----------------|
D:-----------------|-----------------|
A:2----------------|-----------------| X2
E:-----------------|2----------------|

Verse 3: 

G:-----------------|-----------------|
D:-----------------|-----------------|
A:2----------------|-----------------| x3
E:-----------------|2----------------|

Final: the end is when is repeated 11 times the phrase "for you"

G:---------------------|-----------------|
D:---------------------|-----------------|
A:2--------2--0--------|-----------------|
E:---------------4--2___2________________|

End Note:

G:-----------------|
D:-----------------|
A:2----------------|
E:-----------------|

Well, this is my first tab and i thing that is ok, so enjoy it











            
            
Suggest correction
Creating personal tab
Creating personal tab
You can edit any tab online and save it as your Personal.

You can edit, replace or remove any tab part or add personal notes – all changes will be seen only by you.

Personal tabs can be accessed anytime from any device, even offline.
Learn more »
Give kudos to tab author, rate the tab!
1 2 3 4 5
comments
print report bad tab
guest
You may want to rate the tab now too:
select rating
Wanna post a correction for this tab? Suggest correction