Oops, an error
Loading. Please wait.

Hymn For The Weekend bass

version 1
version 1

Whole song

Interactive

14,317 views 24 this week
2 commentsread comments
1 2 3 4 5
x 9
add to favorites
×
Save as Personal and add changes to this tab that will be seen only by you. Learn more ›
×
You can save this tab as Personal to edit and correct it or add notes. All changes will be seen only by you. Learn more »
launch autoscroll
font size
0
reset
guitar tuner
edit
Autoscroll
slow
fast
+/-
esc
set tempo
stop
Author
-------------------------------------------------------------------------------
                            Hymn For The Weekend - Coldplay
-------------------------------------------------------------------------------
Tabbed by: Andrew P
Tuning: DADG

Feedback appreciated, thanks
 
~~~ is a part without bass

[Pre-Chorus] 1(1.25):
G|----------------|----------------|----------------|----------------|
D|------1---------|----------------|------1---------|----------------|
A|3-------3-------|----------------|3-------3-------|----------------| x2 
D|----------------|6-----5-3-------|----------------|3---1---0---1---|


[Chorus](1.46):
G|----------------|----------5-----|----------------|----------------|
D|---------------1|----------------|---------------1|----------------|
A|------131-----3-|3-----333-------|------131-----3-|3-----336\5-3---|
D|6---------------|------------5-5-|6---------------|--------------5-|

G|----------------|----------5-----|----------------|----------------|
D|---------------1|----------------|---------------1|----------------|
A|------131-----3-|3-----333-------|------131-----3-|3-------3---3---|
D|6---------------|------------5-5-|6---------------|----------------|

~~~


[Pre-Chorus 2](2.40):
G|----------------|----------------|----------------|----------------|
D|------1---------|----------------|------1---------|----------------|
A|3-------3-------|----------------|3-------3-------|----------------| 
D|----------------|6-----5-3-------|----------------|3---1---0---1---|

Chorus Repeats

~~~

[Bridge] (3.22):
G|----------------|----------------|----------------|----------------|
D|---------------1|----------------|---------------1|----------------|
A|------131-----3-|3-----336\5-3---|------131-----3-|3-------3---3---|
D|6---------------|--------------5-|6---------------|----------------|

Chorus Repeats



| /  slide up
| \  slide down
| h  hammer-on
| p  pull-off
| ~  vibrato
| +  harmonic
| x  Mute note

===============================================================================

            
            
Suggest correction
Creating personal tab
Creating personal tab
You can edit any tab online and save it as your Personal.

You can edit, replace or remove any tab part or add personal notes – all changes will be seen only by you.

Personal tabs can be accessed anytime from any device, even offline.
Learn more »
comments
print report bad tab
2 comments total.
+1 reply
mustafabatuhana 10 Apr 23, 2016 11:09 PM

you must write DADG ( drop-D tuning ), not GDAD

0 reply
mustafabatuhana 10 Jun 06, 2017 07:24 AM

Hm after 1 year i played this song again and i recognized other tabs different than this. I like this tab so much because sound is very cool in my record. But there is other tabs for this song. I don't know which one is true one but this one is cool

guest
You may want to rate the tab now too:
select rating
Wanna post a correction for this tab? Suggest correction