Oops, an error
Loading. Please wait.
We have an official In My Place tab made by UG professional guitarists. Check out the tab »
×
6,070 views 12 this week
4 commentsread comments
1 2 3 4 5
x 4
add to favorites
×
Save as Personal and add changes to this tab that will be seen only by you. Learn more ›
×
You can save this tab as Personal to edit and correct it or add notes. All changes will be seen only by you. Learn more »
launch autoscroll
font size
0
reset
how to read this tab
guitar tuner
backing track
0:00
0:00
edit
Autoscroll
slow
fast
+/-
esc
set tempo
stop
Title: In My Place
Artist: Coldplay
Album: A rush of blood to the head
Tabbed by: Dean Swift

GTR.1 – electric w/slight overdrive, standard tuning (EADGBe)
GTR.2 – acoustic, standard tuning (EADGBe) capo 2nd fret 

I have tabbed this song out for two guitars which may make it seem complicated on
screen however if you print it off and use a highlighter pens to distinguish the
guitar 1 parts with the guitar 2 parts it will be easier to follow alternately you
can email me at deanswift1@hotmail.com requesting the tab for each guitar individually
thanks, Dean.

Intro:
    GTR.1   
    (0:06)
E|-12-12-7-9-7-9|-12-12-7-9-7-9|
A|--------------|--------------|
D|--------------|--------------|
G|--------------|--------------|
B|--------------|--------------|
e|--------------|--------------|

E|-12-12-7-9-7-9|-12-12-9b(10)----9----9-----|
A|--------------|--------------12---12---10--|
D|--------------|----------------------------|
G|--------------|----------------------------|
B|--------------|----------------------------|
e|--------------|----------------------------|

E|-12-12-7-9-7-9|-12-12-7-9-7-9|
A|--------------|--------------|
D|--------------|--------------|
G|--------------|--------------|
B|--------------|--------------|
e|--------------|--------------|
                                            *GTR.1 out
E|-12-12-7-9-7-9|-12-12-9b(10)----9----9------|
A|--------------|--------------12---12---10-*-|
D|--------------|-----------------------------|
G|--------------|-----------------------------|
B|--------------|-----------------------------|
e|--------------|-----------------------------|

verse 1:(0:33) - GTR.2 only 
G    G/F#     Bm
  In my place, in my___ place
           D             G
  Were lines that I couldn't change
           Em     Bm
  I was lost, oh yeah
G    G/F      Bm
   I was lost, I was lost
       D                G
  Crossed lines I shouldn't have crossed
           Em   Bm     D
  I was lost, oh yeah


Chorus 1: GTR 1 - (0:59) 
D       A          E     D
Yeah, How long must you wait for it?
D       A          E     D
Yeah, How long must you pay for it?
D       A          E     D
Yeah, How long must you wait for it?
   D (riff 1)
Ah, For it

Riff 1:
   D         * into instrumental

E|--2------2-*----------|
A|---3---3--------------|
D|-----2----------------|
G|----------------------|
B|----------------------|
e|----------------------|


Chorus 1: GTR 2 - (0:59)  
C       G          D    C             
Yeah, How long must you wait for it?
C       G          D    C             
Yeah, How long must you pay for it?
C       G          D    C             
Yeah, How long must you wait for it?
           D 
Ah, For it

Instrumental: - GTR.1   
   (1:26)
E|-12-12-7-9-7-9|-12-12-7-9-7-9|
A|--------------|--------------|
D|--------------|--------------|
G|--------------|--------------|
B|--------------|--------------|
e|--------------|--------------|
                                            *GTR.1 out
E|-12-12-7-9-7-9|-12-12-9b(10)----9----9------|
A|--------------|--------------12---12---10-*-|
D|--------------|-----------------------------|
G|--------------|-----------------------------|
B|--------------|-----------------------------|
e|--------------|-----------------------------| 
verse 2:(1:40) - GTR.2 only 
G    G/F#     Bm
  I was scared I was scared
           D             G
  Tierd and under prepared
          Em   Bm
  But I wait for it
G    G/F      Bm
  And if you go, if you go
           D             G
  And leave me down here on my own
           Em   Bm     
  Then I'll wait for you
   D
  Yeah

Chorus 2: GTR 1 - (2:06) 
D       A          E     D
Yeah, How long must you wait for it?
D       A          E      D
Yeah, How long must you pay for it?
D       A          E      D
Yeah, How long must you wait for it?
          D (riff 1)
Ah, For it

Riff 1:
   D         * into instrumental

E|--2------2-*----------|
A|---3---3--------------|
D|-----2----------------|
G|----------------------|
B|----------------------|
e|----------------------|

Chorus 2: GTR 2 - (2:06)  
C       G          D    C             
Yeah, How long must you wait for it?
C       G          D    C             
Yeah, How long must you pay for it?
C       G          D    C             
Yeah, How long must you wait for it?
           D 
Ah, For it

    Instrumental: - GTR.1   
   (2:32)
(slower than others)
E|-12-12-7-9-7-9|-12-12-7-9-7-9|
A|--------------|--------------|
D|--------------|--------------|
G|--------------|--------------|
B|--------------|--------------|
e|--------------|--------------|

E|-12-12-7-9-7-9|-12-12-9b(10)----9----9---|
A|--------------|--------------12---12-----|
D|--------------|--------------------------|
G|--------------|--------------------------|
B|--------------|--------------------------|
e|--------------|--------------------------|

E|-12-12-7-9-7-9|-12-12-9b(10)----9----9---|
A|--------------|--------------12---12-----|
D|--------------|--------------------------|
G|--------------|--------------------------|
B|--------------|--------------------------|
e|--------------|--------------------------|
                                            
E|-12-12-7-9-7-9|-12-12-9b(10)----9----9--|
A|--------------|--------------12---12----|
D|--------------|-------------------------|
G|--------------|-------------------------|
B|--------------|-------------------------|
e|--------------|-------------------------|


verse 3:(2:59) - GTR.1 

E|-12-12-7-9-7-9|-12-12-7-9-7-9|
A|--------------|--------------|
D|--------------|--------------|
G|--------------|--------------|
B|--------------|--------------|
e|--------------|--------------|

E|-12-12-7-9-7-9|-12-12-9b(10)----9----9---|
A|--------------|--------------12---12-----|
D|--------------|--------------------------|
G|--------------|--------------------------|
B|--------------|--------------------------|
e|--------------|--------------------------|

E|-12-12-7-9-7-9|-12-12-9b(10)----9----9---|
A|--------------|--------------12---12-----|
D|--------------|--------------------------|
G|--------------|--------------------------|
B|--------------|--------------------------|
e|--------------|--------------------------|
                                           * hold note 
E|-12-12-7-9-7-9|-12-12-9b(10)----9----9-----|
A|--------------|--------------12---12---10*-|
D|--------------|----------------------------|
G|--------------|----------------------------|
B|--------------|----------------------------|
e|--------------|----------------------------|

verse 3:(2:59) - GTR.2
      G     G/F#  Bm
Singing please, please, please
     D            G
Come back and sing to me
     Em    Bm
To me, me
     D         G  G/F#    Bm
Come on and sing it out, now, now
           D         G  Em      Bm
Come on and sing it out, to me, me
     D                     *(GTR.1 finishes)
Come back and sing
G     G/F#     Bm
  In my place, in my place
     D             G
  Were lines that I couldn't change
                 Em         Bm   D   G
  And I was lost, oh yeah,           oh   yeah


            
            
Suggest correction
Creating personal tab
Creating personal tab
You can edit any tab online and save it as your Personal.

You can edit, replace or remove any tab part or add personal notes – all changes will be seen only by you.

Personal tabs can be accessed anytime from any device, even offline.
Learn more »
comments
print report bad tab
4 comments total. Showing first comments.
0 reply
dannybananie 10 Jan 26, 2006 12:06 PM

not even close

0 reply
beanydeany 61 Jan 27, 2006 10:54 PM

hey guys this tab is 100% right if u read all the info ull find out that theres 2 guitar and i has a capo 1 dosnt so that probs were it screwed up becoz this is 100% right

0 reply
dannybananie 10 Jan 29, 2006 08:57 AM

no it isnt... i have the book for this song and trust me. the capo part is right but hes messed up on the chord parts and the main guitar... he has too little notes

guest
You may want to rate the tab now too:
select rating
Wanna post a correction for this tab? Suggest correction