Oops, an error
Loading. Please wait.

Life In Technicolor bass

version 2
version 2

Whole song

Interactive

13,917 views 12 this week
no commentswrite comment
1 2 3 4 5
x 4
add to favorites
×
Save as Personal and add changes to this tab that will be seen only by you. Learn more ›
×
You can save this tab as Personal to edit and correct it or add notes. All changes will be seen only by you. Learn more »
launch autoscroll
font size
0
reset
guitar tuner
edit
Autoscroll
slow
fast
+/-
esc
set tempo
stop
Author
Title: Life In Technicolor
Composer: Coldplay
Lyricist: Transcription by Stephan Hondeveld
MoreInfo: Bass Tab version.
Copyright: © 2008 - Transcription by Stephan Hondeveld



---4/4
---E-E-E-E-E-E-E-E---E-E-E-E-E-E-E-E---E-E-E-E-E-E-E-E---E-E-E-E-E-E-E-E--
G|-----------------|-----------------|-----------------|-----------------|
D|-----------------|-----------------|-----------------|-----------------|
A|-----------------|-----------------|-----------------|-4---------------|
E|-5-5-5-5-5-5-5-5-|-5-5-5-5-5-5-5-5-|-5-5-5-5-5-5-5-5-|---5-5-5-5-5-5-5-|






---E-E-E-E-E-E-E-E---E-E-E-E-E-E-E-E---E-E-E-E-E-E-E-E---E-E-E-E-E-E-E-E--
G|-----------------|-----------------|-----------------|-----------------|
D|-----------------|-----------------|-----------------|-----------------|
A|-----------------|-4---------------|-----------------|-4---------------|
E|-5-5-5-5-5-5-5-5-|---5-5-5-5-5-5-5-|-5-5-5-5-5-5-5-5-|---5-5-5-5-5-5-5-|






---E-E-E-E-E-E-E-E---E-E-E-E-E-E-E-E---E-E-E-E-E-E-E-E---E-E-E-E-E-E-E-E--
G|-----------------|-----------------|-----------------|-----------------|
D|-4-4-4-4-4-4-4-4-|-----------------|-----------------|-----------------|
A|-----------------|-5-5-5-5-5-5-5-5-|-----------------|-4---------------|
E|-----------------|-----------------|-5-5-5-5-5-5-5-5-|---5-5-5-5-5-5-5-|






---E-E-E-E-E-E-E-E---E-E-E-E-E-E-E-E---E-E-E-E-E-E-E-E---E-E-E-E-E-E-E-E--
G|-----------------|-----------------|-----------------|-----------------|
D|-----------------|-----------------|-----------------|-----------------|
A|-7-7-7-7-7-7-7-7-|-7-7-7-7-7-7-7-7-|-----------------|-----------------|
E|-----------------|-----------------|-5-5-5-5-5-5-5-5-|-5-5-5-5-5-5-5-5-|






---Q---E-E-Q---E-E---E-E-E-E-Q---Q-----Q---E-E-Q---E-E---E-E-E-E-Q---Q---
G|-----------------|-----------------|-----------------|-----------------|
D|-----------------|-----------------|-----------------|-------------2---|
A|---------------5+|-5-5-----7---5---|-4---4-4-4---4---|-4-4-----4-------|
E|-2---2-2-2---2---|-------5---------|---------------4-|-------4---------|






---Q---E-E-Q---E-E---E-E-E-E-Q---Q-----Q---E-E-Q---E-E---E-E-E-E-Q---Q---
G|-----------------|-----------------|-----------------|-----------------|
D|-----------------|-----------------|-----------------|-------------2---|
A|---------------5+|-5-5-----7---5---|-4---4-4-4---4---|-4-4-----4-------|
E|-2---2-2-2---2---|-------5---------|---------------4-|-------4---------|





---Q---E-E-Q---E-E---E-E-E-E-Q---Q-----Q---E-E-Q---E-E---E-E-E-E-E-E-E-E--
G|-----------------|-----------------|-----------------|-----------------|
D|-----------------|-----------------|-----------------|-----------------|
A|---------------5+|-5-5-----7---5---|-----------------|-----------------|
E|-2---2-2-2---2---|-------5---------|-5---5-5-4---4-4-|-2-2-2-2-2-2-2-2-|





---E-E-E-E-E-E-E-E---E-E-E-E-E-E-E-E--
G|-----------------|-----------------|
D|-----------------|-----------------|
A|-7-7-7-7-7-7-7-7-|-7-7-7-7-7-7-7-7-|
E|-----------------|-----------------|



What do all the symbols mean?
-----------------------------

W - whole note (semibreve)
H - half note (minim)
Q - quarter note (crotchet)
E - 8th note (quaver)
S - 16th note (semiquaver)
T - 32nd note (demisemi quaver)
X - 64th note (hemidemisemi quaver)

If a dot appears after one of the above then it means that the note is 1.5
times as long, e.g. Q. is 3 8th notes long. Two dots means 1.75 times long.

If a '+' sign appears after a note then that note is tied to (held on to) the
next note.

            
            
Suggest correction
Creating personal tab
Creating personal tab
You can edit any tab online and save it as your Personal.

You can edit, replace or remove any tab part or add personal notes – all changes will be seen only by you.

Personal tabs can be accessed anytime from any device, even offline.
Learn more »
comments
print report bad tab
guest
You may want to rate the tab now too:
select rating
Wanna post a correction for this tab? Suggest correction