Oops, an error
Loading. Please wait.

Life In Technicolor Ii bass

version 1
version 1

Whole song

Interactive

1,051 views 15 this week
no commentswrite comment
1 2 3 4 5
1 last vote to show rating
add to favorites
×
Save as Personal and add changes to this tab that will be seen only by you. Learn more ›
×
You can save this tab as Personal to edit and correct it or add notes. All changes will be seen only by you. Learn more »
launch autoscroll
font size
0
reset
guitar tuner
edit
Autoscroll
slow
fast
+/-
esc
set tempo
stop
Author
Difficulty
Life In Technicolour II  

Standard Tuning

Bass comes in at 0:15 seconds with:

(All three of these are slightly faint to hear)
G|-----------------|-----------------|-----------------|-----------------|
D|-----------------|-----------------|-----------------|-----------------|
A|-9-9-9-9-9-9-9-9-|-5-5-5-5-5-5-5-5-|-----------------|-----------------|
E|-----------------|-----------------|-5-5-5-5-5-5-5-5-|-5-5-5-5-5-5-5-5-| x3   
   
Start picking up the volume around the first A (5) 
G|-----------------|-----------------|-----------------|-----------------|
D|-----------------|-----------------|-----------------|-----------------|
A|-7-7-7-7-7-7-7-7-|-7-7-7-7-7-7-7-7-|-----------------|-----------------|
E|-----------------|-----------------|-5-5-5-5-5-5-5-5-|-5-5-5-5-5-5-5-5-| x1     

At 0:44

G|-----------------|-----------------|-----------------|-----------------|
D|-----------------|-----------------|-----------------|-----------------|
A|-----------------|-----------------|-----------------|-4---------------|
E|-5-5-5-5-5-5-5-5-|-7-5-5-5-5-5-5-5-|-5-5-5-5-5-5-5-5-|---5-5-5-5-5-5-5-| x1

G|-----------------|-----------------|-----------------|-----------------|
D|-----------------|-----------------|-----------------|-----------------|
A|-----------------|-----------------|-----------------|-4---------------|
E|-5-5-5-5-5-5-5-5-|-7-5-5-5-5-5-5-5-|-5-5-5-5-5-5-5-5-|---5-5-5-5-5-5-5-| x1

At 0:59

G|-----------------|-----------------|-----------------|-----------------|
D|-----------------|-----------------|-----------------|-----------------|
A|-9-9-9-9-9-9-9-9-|-5-5-5-5-5-5-5-5-|-----------------|-----------------|
E|-----------------|-----------------|-5-5-5-5-5-5-5-5-|-5-5-5-5-5-5-5-5-| x1

G|-----------------|-----------------|-----------------|-----------------|
D|-----------------|-----------------|-----------------|-----------------|
A|-7-7-7-7-7-7-7-7-|-7-7-7-7-7-7-7-7-|-----------------|-----------------|
E|-----------------|-----------------|-5-5-5-5-5-5-5-5-|-5-5-5-5-5-5-5-5-| x1

VERSE 1
(NOTE: Only the first word and first note are aligned so that it shows where to come in)
  
There's a wild wind blowing down the corner of my street

          G|-----------------|-----------------|-----------------|-----------------|
          D|-----------------|-----------------|-----------------|-----------------|
          A|-----------------|-----------------|-----------------|-4---------------|
          E|-5-5-5-5-5-5-5-5-|-7-5-5-5-5-5-5-5-|-5-5-5-5-5-5-5-5-|---5-5-5-5-5-5-5-|

Every night there the headlights are glowing

      G|-----------------|-----------------|-----------------|-----------------|
      D|-----------------|-----------------|-----------------|-----------------|
      A|-----------------|-----------------|-----------------|-4---------------|
      E|-5-5-5-5-5-5-5-5-|-7-5-5-5-5-5-5-5-|-5-5-5-5-5-5-5-5-|---5-5-5-5-5-5-5-|

There's a cold war coming on the radio, I heard

            G|-----------------|-----------------|-----------------|-----------------|
            D|-----------------|-----------------|-----------------|-----------------|
            A|-9-9-9-9-9-9-9-9-|-5-5-5-5-5-5-5-5-|-----------------|-----------------|
            E|-----------------|-----------------|-5-5-5-5-5-5-5-5-|-5-5-5-5-5-5-5-5-|

Baby, it's a violent world

G|-----------------|-----------------|-----------------|-----------------|
D|-----------------|-----------------|-----------------|-----------------|
A|-7-7-7-7-7-7-7-7-|-7-7-7-7-7-7-7-7-|-----------------|-----------------|
E|-----------------|-----------------|-5-5-5-5-5-5-5-5-|-5-5-5-5-5-5-5-5-|

CHORUS

Oh love, don't let me go

G|-----------------|-----------------|-----------------|-----------------|
D|-----------------|-----------------|-----------------|-----------------|
A|---------------5-|-5-5-----7---5---|-4---4-4-4---4---|-4-4-----4---7---|
E|-2---2-2-2---2---|-------5---------|---------------4-|-------4---------|

Won't you take me where the street lights glow?

          G|-----------------|-----------------|-----------------|-----------------|
          D|-----------------|-----------------|-----------------|-----------------|
          A|---------------5-|-5-5-----7---5---|-4---4-4-4---4---|-4-4-----4---7---|
          E|-2---2-2-2---2---|-------5---------|---------------4-|-------4---------|

I could hear it coming, I could hear the siren sound

             G|-----------------|-----------------|-----------------|-----------------|
             D|-----------------|-----------------|-----------------|-----------------|
             A|---------------5-|-5-5-----7---5---|-----------------|-----------------|
             E|-2---2-2-2---2---|-------5---------|-5---5-5-4---4-4-|-2-2-2-2-2-2-2-2-|

Now my feet won't touch the ground

      G|-------------------------|-------------------------|----------------|----------------|
      D|-------------------------|-------------------------|----------------|----------------|
      A|-------------------------|-------------------------|----------------|----------------|
      E|-12-12-12-12-12-12-12-12-|-12-12-12-12-12-12-12-12-|-5-5-5-5-5-5-5-5|-5-5-5-5-5-5-5-5|

At 2:12

G|-----------------|-----------------|-----------------|-----------------|
D|-----------------|-----------------|-----------------|-----------------|
A|-9---------------|-5---------------|-----------------|-----------------|
E|-----------------|-----------------|-5---------------|-----------------|    
                                      (Let this A ring two bars) 
G|-----------------|-----------------|-----------------|-----------------|
D|-----------------|-----------------|-----------------|-----------------|
A|-9---------------|-5---------------|-----------------|-----------------|
E|-----------------|-----------------|-5---------------|-----------------|
                                      (Let this A ring two bars)
VERSE 2

Time came a-creeping, oh, and time's a loaded gun

G|-----------------|-----------------|-----------------|-----------------|
D|-----------------|-----------------|-----------------|-----------------|
A|-9-9-9-9-9-9-9-9-|-5-5-5-5-5-5-5-5-|-----------------|-----------------|
E|-----------------|-----------------|-5-5-5-5-5-5-5-5-|-5-5-5-5-5-5-5-5-|

Every road is a ray of light
   G|-------------|-------------|-------------|-------------|
   D|-19-19-19-19-|-16-16-16-16-|-------------|-------------|
   A|-------------|-------------|-19-19-19-19-|-19-19-19-19-|
   E|-------------|-------------|-------------|-------------|
(NOTE: These are only shorter to fit on the UG formating, it is 8 notes of each)

It goes on, time only can lead you on

      G|-----------------|-----------------|-----------------|-----------------|
      D|-----------------|-----------------|-----------------|-----------------|
      A|-9-9-9-9-9-9-9-9-|-5-5-5-5-5-5-5-5-|-----------------|-----------------|
      E|-----------------|-----------------|-5-5-5-5-5-5-5-5-|-5-5-5-5-5-5-5-5-|

Still, it's such a beautiful night

    G|-------------------------|-------------------------|----------------|----------------|
    D|-------------------------|-------------------------|----------------|----------------|
    A|-------------------------|-------------------------|----------------|----------------|
    E|-12-12-12-12-12-12-12-12-|-12-12-12-12-12-12-12-12-|-5-5-5-5-5-5-5-5|-5-5-5-5-5-5-5-5|

CHORUS

Oh love, don't let me go

G|-----------------|-----------------|-----------------|-----------------|
D|-----------------|-----------------|-----------------|-----------------|
A|---------------5-|-5-5-----7---5---|-4---4-4-4---4---|-4-4-----4---7---|
E|-2---2-2-2---2---|-------5---------|---------------4-|-------4---------|

Won't you take me where the street lights glow?

          G|-----------------|-----------------|-----------------|-----------------|
          D|-----------------|-----------------|-----------------|-----------------|
          A|---------------5-|-5-5-----7---5---|-4---4-4-4---4---|-4-4-----4---7---|
          E|-2---2-2-2---2---|-------5---------|---------------4-|-------4---------|

I could hear it coming, I could hear the siren sound

             G|-----------------|-----------------|-----------------|-----------------|
             D|-----------------|-----------------|-----------------|-----------------|
             A|---------------5-|-5-5-----7---5---|-----------------|-----------------|
             E|-2---2-2-2---2---|-------5---------|-5---5-5-4---4-4-|-2-2-2-2-2-2-2-2-|

Now my feet won't touch the ground

      G|-------------------------|-------------------------|----------------|----------------|
      D|-------------------------|-------------------------|----------------|----------------|
      A|-------------------------|-------------------------|----------------|----------------|
      E|-12-12-12-12-12-12-12-12-|-12-12-12-12-12-12-12-12-|-5-5-5-5-5-5-5-5|-5-5-5-5-5-5-5-5|

aT 3:25

G|-----------------|-----------------|-----------------|-----------------|
D|-----------------|-----------------|-----------------|-----------------|
A|---------------5-|-5-5-----7---5---|-4---4-4-4---4---|-4-4-----4---7---|
E|-2---2-2-2---2---|-------5---------|---------------4-|-------4---------| X1

G|-----------------|-----------------|-----------------|-----------------|
D|-----------------|-----------------|-----------------|-----------------|
A|---------------5-|-5-5-----7---5---|-4---4-4-4---4---|-4-4-----4---7---|
E|-2---2-2-2---2---|-------5---------|---------------4-|-------4---------| X1

Gravity, release me                          And don't ever hold me down

G|-----------------|-----------------|-----------------|-----------------|
D|-----------------|-----------------|-----------------|-----------------|
A|---------------5-|-5-5-----7---5---|-----------------|-----------------|
E|-2---2-2-2---2---|-------5---------|-5---5-5-4---4-4-|-2-2-2-2-2-2-2-2-|

Now my feet won't touch the ground

      G|-------------------------|-------------------------|----------------|----------------|
      D|-------------------------|-------------------------|----------------|----------------|
      A|-------------------------|-------------------------|----------------|----------------|
      E|-12-12-12-12-12-12-12-12-|-12-12-12-12-12-12-12-12-|-5-5-5-5-5-5-5-5|-5-5-5-5-5-5-5-5|

            
            
Suggest correction
Creating personal tab
Creating personal tab
You can edit any tab online and save it as your Personal.

You can edit, replace or remove any tab part or add personal notes – all changes will be seen only by you.

Personal tabs can be accessed anytime from any device, even offline.
Learn more »
Give kudos to tab author, rate the tab!
1 2 3 4 5
comments
print report bad tab
guest
You may want to rate the tab now too:
select rating
Wanna post a correction for this tab? Suggest correction