Oops, an error
Loading. Please wait.

Life In Technicolor Ii tab

version 1
version 1

Whole song

Interactive

Video

68,828 views 78 this week
no commentswrite comment
1 2 3 4 5
x 21
add to favorites
×
Save as Personal and add changes to this tab that will be seen only by you. Learn more ›
×
You can save this tab as Personal to edit and correct it or add notes. All changes will be seen only by you. Learn more »
launch autoscroll
font size
0
reset
how to read this tab
guitar tuner
edit
Autoscroll
slow
fast
+/-
esc
set tempo
stop
Author
[Chords]

A: E|--0--|  Asus4: E|--0--|  Dsus2: E|--0--|
   B|--2--|         B|--3--|         B|--3--|
   G|--2--|         G|--2--|         G|--2--|
   D|--2--|         D|--2--|         D|--0--|
   A|--0--|         A|--0--|         A|-----|
   E|-----|         E|-----|         E|-----|


F#m: E|--2--|  A/G#: E|--0--|  A/F#: E|--0--|  
     B|--2--|        B|--2--|        B|--2--|
     G|--2--|        G|--2--|        G|--2--|
     D|--4--|        D|--2--|        D|--2--|
     A|--4--|        A|--0--|        A|--0--|
     E|--2--|        E|--4--|        E|--2--|


E: E|--0--|  D: E|--2--|  Amaj7: E|--0--|
   B|--0--|     B|--3--|         B|--2--|
   G|--1--|     G|--2--|         G|--1--|
   D|--2--|     D|--0--|         D|--2--|
   A|--2--|     A|-----|         A|-----|
   E|--0--|     E|-----|         E|-----|


[Intro]
(Riff 1) (x10)
(The chord that was used for the note is A)
E|-------------0--------------2-2-0----------|
B|-----0----2-----------0--------------------|
G|--2----2--------2---2---2----------2-------|
D|-------------------------------------------|
A|-------------------------------------------|
E|-------------------------------------------|

E|-------------0--------------4-4-0----------|
B|-----0----2-----------0--------------------|
G|--2----2--------2---2---2----------2-------|
D|-------------------------------------------|
A|-------------------------------------------|
E|-------------------------------------------| 


[Verse 1] 
            A         Asus4    A
  There's a Wild wind blowing, down the corner of my street
E|---------------------------------------------------------|
B|---------------------------------------------------------|
G|2-------4-6----6----4-----2--2----4---6----7-6--4--2-----|
D|---------------------------------------------------------|
A|---------------------------------------------------------|
E|---------------------------------------------------------|

        A               Dsus2          A
  Every night, there the headlights are glowing
E|---------------------------------------------------------|
B|---------------------------------------------------------|
G|2---4-6------6-----2---4---2------4---6---2--------------|
D|---------------------------------------------------------|
A|---------------------------------------------------------|
E|---------------------------------------------------------|

           F#m      Dsus2          A
  Theres a cold war coming, on the radio I heard
E|---------------------------------------------------------|
B|---------------------------------------------------------|
G|2------4-6----6---4--2----2--4---6-7-6-4-2---------------|
D|---------------------------------------------------------|
A|---------------------------------------------------------|
E|---------------------------------------------------------|

  E                   A
  Baby it's a violent World
E|---------------------------------------------------------|
B|---------------------------------------------------------|
G[4--7-6----2-6--4----2------------------------------------|
D|---------------------------------------------------------|
A|---------------------------------------------------------|
E|---------------------------------------------------------|

[Chorus]
(NOTE: FOR Amaj7, you can also usa an A)
     F#m        D      Amaj7
  O00h love don't let me go
E|---------------------------------------------------------|
B|---------------------------------------------------------|
G|6--9-11---2-----11--9--9---------------------------------|
D|---------------------------------------------------------|
A|---------------------------------------------------------|
E|---------------------------------------------------------|

            F#m               D            Amaj7
  Won't you take me where the streetlights glow 
E|---------------------------------------------------------|
B|----------7----9--7-----3---7-----7------5---------------|
G|6-----9--------------------------------------------------|
D|---------------------------------------------------------|
A|---------------------------------------------------------|
E|---------------------------------------------------------|

          F#m     D               A        A/G#   A/F#
  I could hear it coming, I could hear the sirens sound
E|---------------------------------------------------------|
B|---------------------------------------------------------|
G|2-4-----6----6--4----2--2-4-----6----7---6----4--2-------|
D|---------------------------------------------------------|
A|---------------------------------------------------------|
E|---------------------------------------------------------|

         E                    A
  Now my feet won't touch the ground.
E|---------------------------------------------------------|
B|2--------------------------------------------------------|
G|----2--4----6-----4-----2---2----------------------------|
D|---------------------------------------------------------|
A|---------------------------------------------------------|
E|---------------------------------------------------------|

[Interlude]
(Riff) (x2)
E|-------------0--------------2-2-0----------|
B|-----0----2-----------0--------------------|
G|--2----2--------2---2---2----------2-------|
D|-------------------------------------------|
A|-------------------------------------------|
E|-------------------------------------------|

E|-------------0--------------4-4-0----------|
B|-----0----2-----------0--------------------|
G|--2----2--------2---2---2----------2-------|
D|-------------------------------------------|
A|-------------------------------------------|
E|-------------------------------------------| 

[Verse 2]
  F#m       Dsus2              A    
  Time came a-creepin', oh and time's of loaded gun
E|---------------------------------------------------------|
B|2----2---------------------------------------------------|
G|----------2-4-----2---2--4---6-----7--6---4--2-----------|
D|---------------------------------------------------------|
A|---------------------------------------------------------|
E|---------------------------------------------------------|

        F#m       Dsus2  A
  Every road is a ray of light
E|---------------------------------------------------------|
B|2-5---7----7-10-3---5--2---------------------------------|
G|---------------------------------------------------------|
D|---------------------------------------------------------|
A|---------------------------------------------------------|
E|---------------------------------------------------------|

          F#m  Dsus2 A
  It goes o-o-o-on,  Time can only lead you on. 
E|---------------------------------------------------------|
B|5--5----5-7(x4)----5----7---5----2----0------------------|
G|------------------------------------------2--------------|
D|---------------------------------------------------------|
A|---------------------------------------------------------|
E|---------------------------------------------------------|

        E                     A
  Still it's such a beautiful night 
E|---------------------------------------------------------|
B|---------------------------------------------------------|
G|2------4(x2)-4--6-9---6---4-2----------------------------|
D|---------------------------------------------------------|
A|---------------------------------------------------------|
E|---------------------------------------------------------|

[Chorus]
       F#m        D      Amaj7
  O00h love don't let me go
E|---------------------------------------------------------|
B|---------------------------------------------------------|
G|6--9-11---2-----11--9--9---------------------------------|
D|---------------------------------------------------------|
A|---------------------------------------------------------|
E|---------------------------------------------------------|

            F#m               D            Amaj7
  Won't you take me where the streetlights glow 
E|---------------------------------------------------------|
B|----------7----9--7-----3---7-----7------5---------------|
G|6-----9--------------------------------------------------|
D|---------------------------------------------------------|
A|---------------------------------------------------------|
E|---------------------------------------------------------|

          F#m     D               A        A/G#   A/F#
  I could hear it coming, Like a serenade of sound
E|---------------------------------------------------------|
B|---------------------------------------------------------|
G|2-4-----6----6--4----2--2-4----6--7-----4----------------|
D|---------------------------------------------------------|
A|---------------------------------------------------------|
E|---------------------------------------------------------|

         E                    A
  Now my feet won't touch the ground.
E|---------------------------------------------------------|
B|2--------------------------------------------------------|
G|----2--4----6-----4-----2---2----------------------------|
D|---------------------------------------------------------|
A|---------------------------------------------------------|
E|---------------------------------------------------------|

  F#m  D  Amaj7

(I just suggest using the chords here, but TABS would be fine)
     F#m          D           Amaj7
  oh-ohhhhhhhh-oh-ohhhhhhh-oh-oh
E|---------------------------------------------------------|
B|-------------------------3--5----------------------------|
G|2--1---------2--1----------------------------------------|
D|-----------2----------2-2--------------------------------|
A|---------------------------------------------------------|
E|---------------------------------------------------------|

  F#m       D         A              A/G#    A/F#
  Gravity release me, and don't ever hold me down
E|---------------------------------------------------------|
B|---------------------------------------------------------|
G|6--6--6-6-4-----2---2---4-----6--7-6----4--2-------------|
D|---------------------------------------------------------|
A|---------------------------------------------------------|
E|---------------------------------------------------------|

         E                    A
  Now my feet won't touch the ground
E|---------------------------------------------------------|
B|2--------------------------------------------------------|
G|----2--4----6-----4-----2---2----------------------------|
D|---------------------------------------------------------|
A|---------------------------------------------------------|
E|---------------------------------------------------------|


************************************

| (n)  Ghost note

************************************

            
            
Suggest correction
Creating personal tab
Creating personal tab
You can edit any tab online and save it as your Personal.

You can edit, replace or remove any tab part or add personal notes – all changes will be seen only by you.

Personal tabs can be accessed anytime from any device, even offline.
Learn more »
comments
print report bad tab
guest
You may want to rate the tab now too:
select rating
Wanna post a correction for this tab? Suggest correction