Oops, an error
Loading. Please wait.
We have an official Lost tab made by UG professional guitarists. Check out the tab »
×
2,586 views 1 this week
3 commentsread comments
1 2 3 4 5
1 last vote to show rating
add to favorites
×
Save as Personal and add changes to this tab that will be seen only by you. Learn more ›
×
You can save this tab as Personal to edit and correct it or add notes. All changes will be seen only by you. Learn more »
launch autoscroll
font size
0
reset
how to read this tab
guitar tuner
backing track
0:00
0:00
edit
Autoscroll
slow
fast
+/-
esc
set tempo
stop
Author
Difficulty
Intro:
[Em7] [C] [G] [D] x2

Verse 1:

Em7              C       G
Just because I'm losing
        D         Em7  C   G 
Doesn't mean I'm lost
        D         Em7   C   G 
Doesn't mean I'll stop
        D            Em7   C   G  D
Doesn't mean I would cross

Verse 2:

Em7              C       G
Just because I'm hurting
        D         Em7   C   G 
Doesn't mean I'm hurt
        D             Em7      C    G 
Doesn't mean I didn't get what I deserved
   D             Em7   C   G 
No better and no worse

Chorus:
 
           D
I just got lost
                   C     G  D
Every river that I tried to cross
                   C     G  D
Every door I ever tried was locked
         C
Ohhh and IIIIIIII'mmm just waiting 'til the shine wears off

    E|----------7---|    |-----------5------|
    B|-------5------|    |--------3---------|
    G|-5--7---------| x2 |--4--5------------| x2 
    D|--------------|    |------------------|
    A|--------------|    |------------------|
    E|--------------|    |------------------|

Verse 3:

Em7             C       G
You might be a big fish
     D      Em7   C   G 
In a little pond
        D           Em7
Doesn't mean you've won
        C        G      D      Em7   C      G   
'Cause along may come a bigger one


Chorus:

              D
And you'll be lost
                     C     G  D
Every river that you tried to cross
                   C     G   D
Every gun you ever held went off
         C
Ohhh and I'm
     G                            D
Just waiting 'til the firing stops
         C                 G                           D
Ohhh and IIIIIIII'mmm just waiting 'til the shine wears off

    E|----------7---|    |-----------5------|
    B|-------5------|    |--------3---------|
    G|-5--7---------| x2 |--4--5------------| x2 
    D|--------------|    |------------------|
    A|--------------|    |------------------|
    E|--------------|    |------------------|


Solo -  [E7] [C] [D] [Bm]    x4

E|-12-12-12--10--12-12-12----------------10-10-10------|
B|------------------------------------10---------------|
G|------------------------12-11-11-11-------------11---|
D|-----------------------------------------------------|    x4
A|-----------------------------------------------------|
E|-----------------------------------------------------|


Outro:

         C
Ohhh and I'm
     G                            D
Just waiting 'til the shine wears off
         C
Ohhh and IIIIIIII'mmm just waiting 'til the shine wears off

    E|----------7---|    |-----------5------|
    B|-------5------|    |--------3---------|
    G|-5--7---------| x2 |--4--5------------| x2 
    D|--------------|    |------------------|
    A|--------------|    |------------------|
    E|--------------|    |------------------|



            
            
Suggest correction
Creating personal tab
Creating personal tab
You can edit any tab online and save it as your Personal.

You can edit, replace or remove any tab part or add personal notes – all changes will be seen only by you.

Personal tabs can be accessed anytime from any device, even offline.
Learn more »
Give kudos to tab author, rate the tab!
1 2 3 4 5
comments
print report bad tab
3 comments total.
0 reply
uttamo 35 Sep 15, 2012 01:03 PM

The tab for the solo is atrocious

0 reply
uttamo 35 Sep 15, 2012 02:31 PM

Dude you need to give the song a listen and correct the solo

0 reply
Piri278 41 Apr 27, 2013 08:57 PM

Scratch that whole solo I put and instead, look at this one.

E|-0-0-0--/10-12-12-12\-------------10-10-10------|
B|----------------------/8-7-7-7-10----------7----|
G|------------------------------------------------|
D|------------------------------------------------| x4
A|------------------------------------------------|
E|------------------------------------------------|

guest
You may want to rate the tab now too:
select rating
Wanna post a correction for this tab? Suggest correction