Oops, an error
Loading. Please wait.

Miracles tab

2,596 views 24 this week
1 commentread comment
1 2 3 4 5
x 4
add to favorites
×
Save as Personal and add changes to this tab that will be seen only by you. Learn more ›
×
You can save this tab as Personal to edit and correct it or add notes. All changes will be seen only by you. Learn more »
launch autoscroll
font size
0
reset
how to read this tab
guitar tuner
edit
Autoscroll
slow
fast
+/-
esc
set tempo
stop
Author
-------------------------------------------------------------------------------
                             Coldplay - Miracles
-------------------------------------------------------------------------------
Tabbed by: Envy
E-mail: bayarjargal94@gmail.com

Tuning: Standart Tuning

Capo on fret 1

   A    E    A7   F#m
e|-0----0----0-----0-|
B|-0----0----0-----0-|
G|-6----1----2-----2-|
D|-7----2----2-----4-|
A|-7----2----0-----4-|
E|-x----0----x-----0-| 

Intro: E A E A 

Verse 1

E
 From up above I heard
                               A
The angels sing to me these words
E
 And sometimes, in your eyes
                          A
I see the beauty in the world


[Chorus]

A7              E        F#m
Oh, now I'm floating so high

I blossom and die
A7                           E           F#m
Send your storm and your lightning to strike
                       
Right between the eyes

  [Interlude]
e|---------------------------------------------------------------------------|
B|---------------------------------15-13/----15-13/--------------------------|
G|-10-10-/12-/14-\9--9-9h10-10p9-9-------10-------9b10-----------------------|
D|---------------------------------------------------------------------------| x2
A|---------------------------------------------------------------------------|
E|---------------------------------------------------------------------------|

Verse 2
 Sometimes the stars...
e|---------------------------------------------------------------------------|
B|---------------------------------------------------------------------------|
G|--------2------------------------------------------------------------------|
D|-3-3-3-3--5p3--------------------------------------------------------------| x8
A|---------------------------------------------------------------------------|
E|---------------------------------------------------------------------------|

[Chorus]

A7              E        F#m
Oh, now I'm floating so high

I blossom and die
A7                           E           F#m
Send your storm and your lightning to strike
                       
Right between the eyes, cry

Bridge  (capo on 1st fret)
e|-------0-------------------------------------------------------------------|
B|--------------0------------------------------------------------------------|
G|-----2-------1--------4----------------------------------------------------|
D|---2-------2------2-4------------------------------------------------------|
A|-0-------2------2----------------------------------------------------------|
E|---------------------------------------------------------------------------|

oh heyy
e|---------------------------------------------------------------------------|
B|---------------------------------------------------------------------------|
G|--------2------------------------------------------------------------------|
D|-3-3-3-3--5p3--------------------------------------------------------------| x8
A|---------------------------------------------------------------------------|
E|---------------------------------------------------------------------------|

Solo

e|---------------------------------------------------------------------------|
B|-11\---------------------13-/15--11\---------------------------------------|
G|----5h7-7-/14--5h7-7-/12------------5h7-7-/14-5h7-7-/12--------------------|
D|---------------------------------------------------------------------------|
A|---------------------------------------------------------------------------|
E|---------------------------------------------------------------------------|

  [Interlude]
e|---------------------------------------------------------------------------|
B|---------------------------------15-13/----15-13/--------------------------|
G|-10-10-/12-/14-\9--9-9h10-10p9-9-------10-------9b10-----------------------|
D|---------------------------------------------------------------------------| x2
A|---------------------------------------------------------------------------|
E|---------------------------------------------------------------------------|



************************************

| /   slide up
| \   slide down
| h   hammer-on
| p   pull-off
| ~   vibrato
| +   harmonic
| x   Mute note
| b   Bend
| pb  Pre-bend
| br  Bend release
| pbr Pre-bend release
| brb Bend release bend

************************************

            
            
Suggest correction
Creating personal tab
Creating personal tab
You can edit any tab online and save it as your Personal.

You can edit, replace or remove any tab part or add personal notes – all changes will be seen only by you.

Personal tabs can be accessed anytime from any device, even offline.
Learn more »
comments
print report bad tab
1 comment total.
0 reply
fakyoub 10 Sep 04, 2017 02:39 AM

THX YO. MUCH LOVE

guest
You may want to rate the tab now too:
select rating
Wanna post a correction for this tab? Suggest correction