Oops, an error
Loading. Please wait.

Mylo Xyloto album bass

version 1
version 1

Album

Interactive

1,127 views 9 this week
1 commentread comment
1 2 3 4 5
1 last vote to show rating
add to favorites
×
Save as Personal and add changes to this tab that will be seen only by you. Learn more ›
×
You can save this tab as Personal to edit and correct it or add notes. All changes will be seen only by you. Learn more »
launch autoscroll
font size
0
reset
guitar tuner
edit
Autoscroll
slow
fast
+/-
esc
set tempo
stop
Author
Difficulty
MYLO XYLOTO

HURTS LIKE HEAVEN

Verse
1:37
G|---------------------|
D|---------------------|
A|---------------------|
D|-333333333-111111111-|

1:47
Chorus
G|-------------------------------|
D|-------------------------------|
A|-111111111111133333------------|
D|-------------------11111111111-|

2:09
Oh you, use your heart as a weapon...
G|--------------------|
D|--------------------|
A|--------------------|
D|-333333333-11111111-|

2:14 
Guitar solo
G|-------------------------------|
D|-------------------------------|
A|-111111111111133333------------|
D|-------------------11111111111-|x2

G|-----------------------------|
D|-----------------------------|
A|-----------------11111111111-|
D|-33333333-111111-------------|

2:43
Bridge: It's true...
G|-----------------------------|
D|-----------------------------|
A|-5555555---------------------|
D|---------333333333-111111111-|

Outro
G|-----------------------------|
D|-----------------------------|
A|-11111111111111-666666666666-|
D|-----------------------------|
Keep repeating.

PARADISE

Tuning: Standard

Intro 
0:33
G|--------------------------|
D|--------------------------|
A|---------------8--8-----7-|
E|-653--356--6-8------5-6---|

G|-------------------------|
D|-------------------------|
A|---------------8--8------|
E|-653--356--6-8------56-8-|2x

01:42
When she was little girl...
G|-------------------------------|
D|-------------------------------|
A|-------------------------------|
E|-6~-5~--5~-3~--6~--/10~-10~-8~-|

Chorus for the rest of the song.
G|--------------------------|
D|--------------------------|
A|---------------8--8-----7-|
E|-653--356--6-8------5-6---|

G|-------------------------|
D|-------------------------|
A|---------------8--8------|
E|-653--356--6-8------56-8-|

CHARLIE BROWN

Tuning: Standard

Intro
0:26
G|----------------------------------------88888888-------------------------|
D|-55555555------8888888888888888-5555555-----------------1010101010101010-|
A|---------666666---------------------------------66666666-----------------|
E|-------------------------------------------------------------------------|2x

Chorus
1:17
G|----------------------------------------88888888-------------------------|
D|-55555555------8888888888888888-5555555-----------------1010101010101010-|
A|---------666666---------------------------------66666666-----------------|
E|-------------------------------------------------------------------------|

No bass in the verse, skip to chorus:
G|----------------------------------------88888888-------------------------|
D|-55555555------8888888888888888-5555555-----------------1010101010101010-|
A|---------666666---------------------------------66666666-----------------|
E|-------------------------------------------------------------------------|2x

Bridge
02:29 
G|------------------------------------------|
D|------------------------------------------|
A|--88888888--88888888--66666666------------|
E|--------------------------------888888888-|2x

G|------------------------------------|
D|------------------------------------|
A|-888888888888-555555555-6666666666~-|
E|------------------------------------|

Bridge
2:58
G|----------------------------------------------|
D|----------------------------------------------|
A|----6~--1~-------6~----3~----6~--1~----6~--3~-|
E|-5~-----------5~-----------5~-------5~--------|

Chorus
G|----------------------------------------88888888-------------------------|
D|-55555555------8888888888888888-5555555-----------------1010101010101010-|
A|---------666666---------------------------------66666666-----------------|
E|-------------------------------------------------------------------------|2x

Outro
G|------------------------------|
D|-55555555---------------------|
A|----------6666-88888888888-6~-|
E|------------------------------|

US AGAINST THE WORLD

Start at 3:05
G----------------------------------------------------------------------|
D----------------------------------------------------------------------|
A-4-----9------6------4-----2------------------------------------------|
E----------------------------------------------------------------------|

EVERY TEARDROP IS A WATERFALL

Verse
1:07
G----------------------------------------------------------------|
D----------------------------------------------------------------|
A--5--4--5--4--5--4--9-9-9-9-9-9-9-9--5--------------------------|
E----------------------------------------------------------------|

G------------------------------------------------------------------|
D------------------------------------------------------------------|
A--5-5-5-5-5-5-5-5-4-4-4-4-4-4-4-4-----------------5-5-5-5-5-5-5-5-|x2
E----------------------------------2-2-2-2-2-2-2-2-----------------|

Interlude
2:13 and 2:45
G------------------------------------------------------------------|
D--7-7-7-7---------7-7-7-7---------7-7-7-7---------7-7-7-7---------|
A----------5-5-5-5---------5-5-5-5---------5-5-5-5---------5-5-5-5-|
E------------------------------------------------------------------|

Outro
3:01
G------------------------------------------------------------------------|
D---------7---7------------7---7------------7---7------------7---7-------|
A--5--5/9---9---9---5--5/9---9---9---4--4/7---7---7---4--4/7---7---7-----|
E------------------------------------------------------------------------|

MAJOR MINUS

Pre-Chorus:
0:34
G|-----------------------------------------------|
D|-----------------------------------------------|
A|-------3--------------------------------/12----|
E|-----------------------------------------------|

G|-----------------------------------------------|
D|-----------------------------------------------|
A|--------3--------------------------------/12---|
E|-----------------------------------------------|

Chorus
0:42
G|-----------------------|
D|--14------------12-----|
A|----------12h14---14---|   x2, then
E|-----12----------------|

G|--------------------------------------------------------|
D|--------12--------12-----------12--------12-------------|
A|--12h14-----12h14----14--12h14-----12h14----14--12h14---|   x1
E|--------------------------------------------------------|

Then repeat whole chorus again. Then repeat from Pre-Chorus

Bridge
1:57
G|----------------------------------------|
D|----------------------------------------|
A|----------3----------------------/12----|
E|----------------------------------------|

G|--------------------------------------------------------------|
D|--------------------------------------------------------------|
A|-------3----------------------------/12-----------------------|
E|--------------------------------------------------------------|

Pause and play this part when the drum starts playing again:

G|---------------------------------------------|
D|---------------------------------------------|
A|---------------------------------------------|
E|--12----10----8----------/12----10----8----8-|

Repeat until all instruments come back in, then play chorus until the end,

PRINCESS OF CHINA

Tuning: Drop D

Chorus
0:56
G|---------------------------------------------------------------------------|
D|---------------------------------------------------------------------------|
A|---------------------------------------------------------------------------|
D|-7-7-5h7-7/10-10-8h10/14\3-3-2h3-3-3-3-2h3-3-------------------------------| x2

Bridge
1:42
G|----------------------------------------------------------------------------------|
D|----------------------------------------------------------------------------------|
A|----------------------------------------------------------------------------------|
D|-10-10-10-10-10-10-10-10-3-3-3-3-3-3-3-3/10-10-10-10-10-10-10/14\3-3-3-3-3-3-3-3--|

Bridge part. 2
2:06
G|---------------------------------------------------------------------------|
D|---------------------------------------------------------------------------|
A|---------------------------------------------------------------------------|
D|-0-0-0-0-5-5-5-5-7-7-7-(7-9-10)-10-14-14-0-0-0-0-3-3-33-3------------------|
                            \/
Listen carefully to this bit to perfect the timing.

Chorus
2:45
G|---------------------------------------------------------------------------|
D|---------------------------------------------------------------------------|
A|---------------------------------------------------------------------------|
D|-7-7-5h7-7/10-10-8h10/14\3-3-2h3-3-3-3-2h3-3-------------------------------| x2

Outro
3:08
G|---------------------------------------------------------------------------|
D|---------------------------------------------------------------------------|
A|---------------------------------------------------------------------------|
D|-0-0-0-0-5-5-5-5-7-7-7-7-9-10-10-14-14-------------------------------------| x3

G|---------------------------------------------------------------------------|
D|---------------------------------------------------------------------------|
A|---------------------------------------------------------------------------|
D|-0-0-0-0-5-5-5-5-7---------------------------------------------------------|

DON'T LET IT BREAK YOUR HEART

Intro/Chorus
G|---------------------------------------------------------------|
D|2-2-2-2-2-2-2-2-1-1-1-1----------------------------------------|
A|------------------------2-2-2-2-6-6-6-6-6-6-6-6-7-7-7-7-7-7-7-7|
E|---------------------------------------------------------------|

G|-------------------------------------|
D|----------------7-7-7-7-10-10-10-10--|
A|2-2-2-2-2-2-2-2----------------------|
E|-------------------------------------|

Verse
G|-----------------------------------|
D|-----------------------------------|
A|2-2-22-2/-6-6-66-6\----------2-2-22|
E|--------------------4-4-44-4-------|x4

Interlude
1:29 Still on we crawl...
G|----|
D|----|
A|2~~~|
E|----|

Verse-Bridge
1:43
G|------|------|------|------|
D|------|------|------|------|
A|-2-222|-2-222|-7-777|-7-777|
E|------|------|------|------|x2

Chorus 2
G|----------------------------------------------------------------|
D|2-2-2-2-2-2-2-2-1-1-1-1-----------------------------------------|
A|------------------------2-2-2-2-6-6-6-6-6-6-6-6-7-7-7-7-7-7-7-7-|
E|----------------------------------------------------------------|

G|----------------------------------------------------------------|
D|2-2-2-2-2-2-2-2-1-1-1-1-----------------------------------------|
A|------------------------2-2-2-2-6-6-6-6-6-6-6-6-7-7-7-7-7-7-7-7-|
E|----------------------------------------------------------------|

G|------------------------------------|
D|----------------7-7-7-7-10-10-10-10-|
A|2-2-2-2-2-2-2-2---------------------|
E|------------------------------------|

Post-Chorus
G|------------------------------|
D|---------------5-5-55-5\2-2-22|
A|2-2-22-2/6-6-66---------------|
E|------------------------------|x2

UP WITH THE BIRDS

Bass starts at Chorus
2:38
G|-----------------|-----------------|-----------------|-----------------|
D|-----------4-----|-----------4-----|-----------4-----|-5-5-5-5---4---4-|
A|-7-7-7-7-------5-|-7-7-7-7-------5-|-7-7-7-7-------5-|-----------------|
E|-----------------|-----------------|-----------------|-----------------|

G|-----------------|-----------------|-----------------|-----------------|
D|-----------4-----|-----------------|-----------4-----|-----------------|
A|-5-5-5-5-------5-|-2-2-2-2---4---4-|-5-5-5-5-------5-|-2-2-2-2---4---4-|
E|-----------------|-----------------|-----------------|-----------------|

G|-----------------|-----------------|-----------------|-----------------|
D|-----------4-----|-----------4-----|-----------4-----|-5-5-5-5---4---4-|
A|-7-7-7-7-------5-|-7-7-7-7-------5-|-7-7-7-7-------5-|-----------------|
E|-----------------|-----------------|-----------------|-----------------|

G|-----------------|-----------------|-----------------|-----------------|
D|-----------4-----|-----------------|-----------4-----|-----------------|
A|-5-5-5-5-------5-|-2-2-2-2---4---4-|-5-5-5-5-------5-|-2-2-2-2---4---4-|
E|-----------------|-----------------|-----------------|-----------------|

G|-----------------|-----------------|-----------------|-----------------|
D|-5-5-5-5---4-----|-5-5-5-5---7---7-|-5-5-5-5---4-----|-5-5-5-5---7---7-|
A|---------------5-|-----------------|---------------5-|-----------------|
E|-----------------|-----------------|-----------------|-----------------|

G|-----------------|
D|-----------------|
A|-5---------------|
E|-----------------|

            
            
Suggest correction
Creating personal tab
Creating personal tab
You can edit any tab online and save it as your Personal.

You can edit, replace or remove any tab part or add personal notes – all changes will be seen only by you.

Personal tabs can be accessed anytime from any device, even offline.
Learn more »
Give kudos to tab author, rate the tab!
1 2 3 4 5
comments
print report bad tab
1 comment total.
0 reply
ciho482 134 Apr 16, 2017 07:53 AM

Pretty solid stuff. Play this whilst listening to the album, and it matches pretty well. Great work :)

guest
You may want to rate the tab now too:
select rating
Wanna post a correction for this tab? Suggest correction