Oops, an error
Loading. Please wait.

O ukulele

version 1
version 1

Whole song

  • This version of the song for uke is written to mak... Show more

Interactive

175 views 18 this week
no commentswrite comment
1 2 3 4 5
2 more votes to show rating
add to favorites
×
Save as Personal and add changes to this tab that will be seen only by you. Learn more ›
×
You can save this tab as Personal to edit and correct it or add notes. All changes will be seen only by you. Learn more »
launch autoscroll
font size
0
reset
transpose
0
reset
simplify chords
display chords
guitar tuner
edit
Autoscroll
slow
fast
+/-
esc
set tempo
stop
About this tab version
This version of the song for uke is written to make the tab easiest, although with the capo on 5th it does sound really high pitched. I aimed to make the chords sound as close to the piano part as possible, based off this studio version: https://www.youtube.com/watch?v=Ap-HeMIKi-c :). Was this info helpful? Yes No
Strumming
There is no strumming pattern for this song yet. and get +5 IQ
Chords used:
Bb     3211
Fmaj7  2013
Dm     2210
Csus4  0013
F      2010
Am7    0000
Asus4  2200

[Intro]
  Bb                                                 Fmaj7
D|-----------3-----------------3-----------------3--|-----------3-----------------3-----------------3--|
A|-----1-----------1-----1-----------1-----1--------|-----1-----------1-----1-----------1-----1--------|
F|--2-----------------2-----------------2-----------|--0-----------------0-----------------0-----------|
c|--------0-----0-----------0-----0-----------0-----|--------0-----0-----------0-----0-----------0-----|
  Dm                                                 Csus4                                 F
D|-----------5-----------------5-----------------5--|-----------3-----------------3-----------------3--|
A|-----1-----------1-----1-----------1-----1--------|-----1-----------1-----1-----------1-----1--------|
F|--2-----------------2-----------------2-----------|--6-----------------6-----------------0-----------|
c|--------2-----2-----------2-----2-----------2-----|--------0-----0-----------0-----0-----------0-----|


* Bb                                                 Fmaj7                                 Am7
D|-----------3-----------------3-----------------3--|-----------3-----------------3-----------------3--|
A|-----1-----------1-----1-----------1-----1--------|-----1-----------1-----1-----------1-----1--------|
F|--2-----------------2-----------------2-----------|--0-----------------0-----------------6-----------|
c|--------0-----0-----------0-----0-----------0-----|--------0-----0-----------0-----0-----------0-----|
  Dm                                    Asus4        Csus4                                 F            *
D|-----------5-----------------5-----------------3--|-----------3-----------------3-----------------3--|repeat
A|-----1-----------1-----1-----------1-----1--------|-----1-----------1-----1-----------1-----1--------|
F|--2-----------------2-----------------6-----------|--6-----------------6-----------------0-----------|
c|--------2-----2-----------2-----2-----------0-----|--------0-----0-----------0-----0-----------0-----|

[Verse 1]
Bb        Fmaj7  Dm
Flock of birds
          Csus4 F  Bb
Hovering above
                 Fmaj7  Dm
Just a flock of birds
                        Csus4
That's how you think of love

[Chorus]
F     Bb Fmaj7              Dm
And I always look up to the sky
                Csus4
Pray before the dawn
      F        Bb Fmaj7
Cause they fly always
               Dm
Sometimes they arrive
                   Csus4
Sometimes they are gone
F   Bb  F  Bb  F  Bb
Fly on

[Verse 2]
          Fmaj7  F  Dm
Flock of birds
          Csus4 F   Bb
Hovering above
               Fmaj7          Dm               Csus4
Into smoke I'm turned and rise, following them up

[Chorus]
F       Bb Fmaj7              Dm
Still I always look up to the sky
                Csus4
Pray before the dawn
      F        Bb Fmaj7
Cause they fly away
                Dm
One minute they arrive
                      Csus4
Next you know they're gone
F   Bb
Fly on

[Bridge]

D|-----------3-----------------3-----------------3--|-----------3-----------------3-----------------3--|
A|-----1-----------1-----1-----------1-----1--------|-----1-----------1-----1-----------1-----1--------|
F|--2-----------------2-----------------2-----------|--4-----------------4-----------------4-----------|
c|--------0-----0-----------0-----0-----------0-----|--------0-----0-----------0-----0-----------0-----|

D|-----------8-----------------8-----------------8--|--7-----------------7--------------7--------3--0--|
A|-----5-----------5-----5-----------5-----5--------|--------3-----3-----------3-----3--------1--------|
F|--5-----------------5-----------------5-----------|-----------4-----------------4--------2-----------|
c|--------5-----5-----------5-----5-----------5-----|-----5-----------5-----5--------------------------|  x2

or if you want to play the chords:

Fmaj7  Dm  Csus4

F   Bb  Am7
Fly on
  Dm  Csus4
Ohhhhhhhh

[Outro]
F   Bb       Csus4    Fmaj7
Fly on, ride through
                       Dm
Maybe one day I'll fly next to you
F   Bb       Csus4    Fmaj7
Fly on, ride through
                    Dm
Maybe one day I can fly with you
F   Bb  Fmaj7  Bb
Fly on
F   Bb  Fmaj7  Bb
Fly on
F   Bb
Fly on

            
            
Suggest correction
Creating personal tab
Creating personal tab
You can edit any tab online and save it as your Personal.

You can edit, replace or remove any tab part or add personal notes – all changes will be seen only by you.

Personal tabs can be accessed anytime from any device, even offline.
Learn more »
Give kudos to tab author, rate the tab!
1 2 3 4 5
comments
print report bad tab
guest
You may want to rate the tab now too:
select rating
Wanna post a correction for this tab? Suggest correction