Oops, an error
Loading. Please wait.
We have Chord Pro version of Something Just Like This.
It's the closest thing you can get to the original song and it has interactive parts. Check out the tab »
×

Something Just Like This tab

version 2
version 2

Whole song

  • Easy to follow, fully structured with song timings.
  • The Pre-Chorus begins on the last time he sings: W... Show more

Interactive

Video

4,453 views 51 this week
1 commentread comment
1 2 3 4 5
1 last vote to show rating
add to favorites
×
Save as Personal and add changes to this tab that will be seen only by you. Learn more ›
×
You can save this tab as Personal to edit and correct it or add notes. All changes will be seen only by you. Learn more »
launch autoscroll
font size
0
reset
how to read this tab
guitar tuner
edit
Autoscroll
slow
fast
+/-
esc
set tempo
stop
Author
Difficulty
About this tab version
The Pre-Chorus begins on the last time he sings: Where'd you wanna go..... On this link https://www.youtube.com/watch?v=4u6bWs-ZG0o can you see how Jonny plays the Pre-Chorus. Was this info helpful? Yes No
[Intro]

e|--------------------------------------|
B|--------------------------------------|
G|--------14-------14----------14-------|
D|--12-12----12-12----12-12-12----12-12-|
A|--------------------------------------|
E|--------------------------------------|

e|--------------------------------------|
B|--------------------------------------|
G|-----14-------14----------14----------|
D|--12----12-12----12-12-12-------------|
A|--------------------------------------|
E|--------------------------------------|

=============================================================================================================

[Pre-Chorus]
Where'd you wanna go.....   (2:39)
e|-----------------------|-----------------------|
B|-----------------------|-----------------------|
G|-----------------------|-----------------------|
D|---------------------9-|------------------9----| 4x
A|--9-x-x-9-x-9-x-9-12---|--9-x-x-9-x-9-x-9---12-|
E|-----------------------|-----------------------|

I want something just like this.....
e|--------------------|--------------------------|
B|--------------------|--------------------------|
G|--------------------|--------------------------|
D|--------------------|--------------------------|
A|--9-9-9-9-9-9-12-12-|--12-12-14-14-14-14-14-14-|
E|--------------------|--------------------------|

e|--------------------------|--------------------------|
B|--------------------------|--------------------------|
G|--------------------------|--------------------------|
D|--------------------------|--------------------------|
A|--17-17-17-17-17-17-14-14-|--14-14-12-12-14-14-12-12-|
E|--------------------------|--------------------------|

e|--------------------|--------------------------|
B|--------------------|--------------------------|
G|--------------------|--------------------------|
D|--------------14-14-|--14-14-16-16-16-16-16-16-|
A|--9-9-9-9-9-9-12-12-|--12-12-14-14-14-14-14-14-|
E|--------------------|--------------------------|

e|--------------------------|--------------------------|
B|--------------------------|--------------------------|
G|--------------------------|--------------------------|
D|--19-19-19-19-19-19-16-16-|--16-16-14-14-16-16-14-14-|
A|--17-17-17-17-17-17-14-14-|--14-14-12-12-14-14-12-12-|
E|--------------------------|--------------------------|

=============================================================================================================

[Chorus]
I want something just like this.....
e|-------------------------------14----------|
B|--12-12-/-14-14-14-15-15-14-15----15-14-15-|
G|-------------------------------------------|
D|-------------------------------------------| 4x
A|-------------------------------------------|
E|-------------------------------------------|

e|------------------------------------|------------------------------------|
B|--12-12-12-12-----------------------|--12-12-12-12------------16-b-17-br-|
G|--------------16-p-14----16-p-14----|--------------16-p-14---------------|
D|----------------------16---------16-|----------------------16------------| 3x
A|------------------------------------|------------------------------------|
E|------------------------------------|------------------------------------|

e|-------------------------------14----------|
B|--12-12-/-14-14-14-15-15-14-15----15-14-15-|
G|-------------------------------------------|
D|-------------------------------------------|
A|-------------------------------------------|
E|-------------------------------------------|


************************************

| x   Dead note
| p   Pull-off
| b   Bend
| br  Bend release
| /   Slide up

************************************

            
            
Suggest correction
Creating personal tab
Creating personal tab
You can edit any tab online and save it as your Personal.

You can edit, replace or remove any tab part or add personal notes – all changes will be seen only by you.

Personal tabs can be accessed anytime from any device, even offline.
Learn more »
Give kudos to tab author, rate the tab!
1 2 3 4 5
comments
print report bad tab
1 comment total.
+1 reply
GuardianSA 10 Jul 31, 2017 07:18 AM

Thanks!

guest
You may want to rate the tab now too:
select rating
Wanna post a correction for this tab? Suggest correction