Oops, an error
Loading. Please wait.
We have an official Trouble tab made by UG professional guitarists. Check out the tab »
×
5,551 views 6 this week
2 commentsread comments
1 2 3 4 5
x 7
add to favorites
×
Save as Personal and add changes to this tab that will be seen only by you. Learn more ›
×
You can save this tab as Personal to edit and correct it or add notes. All changes will be seen only by you. Learn more »
launch autoscroll
font size
0
reset
guitar tuner
backing track
0:00
0:00
edit
Autoscroll
slow
fast
+/-
esc
set tempo
stop
Coldplay - Trouble
Tabbed by David Warrington (david@krustytheclown.co.uk)
-----------------
Standard EADG tuning

Intro - No bass

Riff #1
|-----------|-----------|
|---012-----|---012-----|
|-------012-|-------012-|
|-3---------|-3---------|

THEN no bass

THEN play Riff #1 again.

Riff #2
|-----------------------|
|-----------------------|
|-----2---0-----2---0---|
|-3-0---1---3-0---1---3-|

Riff #3
|-----------|-----------|-----------|------|
|---------2-|---------2-|---------2-|------|
|-0-024-5---|-0-024-5---|-0-024-5---|-0-0--|
|-----------|-----------|-----------|----0-|

Then play
Riff #1
Riff #2
Riff #3
Riff #1 x2

Then no bass

Then close with Riff #1 x2.

            
            
Suggest correction
Creating personal tab
Creating personal tab
You can edit any tab online and save it as your Personal.

You can edit, replace or remove any tab part or add personal notes – all changes will be seen only by you.

Personal tabs can be accessed anytime from any device, even offline.
Learn more »
comments
print report bad tab
2 comments total.
0 reply
sonicjimi 10 Sep 03, 2007 08:47 PM

nonaccurate

0 reply
eddienelson 113 Nov 23, 2009 05:50 AM

only one mistake. where you have this:

|-----------|-----------|-----------|------|
|---------2-|---------2-|---------2-|------|
|-0-024-5---|-0-024-5---|-0-024-5---|-0-0--|
|-----------|-----------|-----------|----0-|

you should have this:

|------------|
|--------4-2-|
|-0-024------|*3
|------------|

last time
|------------|
|------4-2---|
|-0----------|
|------------|

peace!

guest
Wanna post a correction for this tab? Suggest correction