Oops, an error
Loading. Please wait.
We have an official Viva La Vida tab made by UG professional guitarists. Check out the tab »
×
110,837 views 30 this week
5 commentsread comments
1 2 3 4 5
x 17
add to favorites
×
Save as Personal and add changes to this tab that will be seen only by you. Learn more ›
×
You can save this tab as Personal to edit and correct it or add notes. All changes will be seen only by you. Learn more »
launch autoscroll
font size
0
reset
guitar tuner
backing track
0:00
0:00
edit
Autoscroll
slow
fast
+/-
esc
set tempo
stop
Author
-------------------------------------------------------------------------------
                             Coldplay - Viva la Vida
-------------------------------------------------------------------------------

Tabbed By : stephen_91 

although i think the current tab for this song is great, i noticed subtle
differences between it and what i heard (particularly in the chorus) so 
this is my interpretation of RDokz's tab

Tuning: Standard
0:14 [Verse 1]
G|---------------------------------------------------------------------------|
D|------------------------------------------------6-6-6-63-3-33-3------------|
A|-4-4-4-46-6-66-6-----------------4-4-4-46-6-66-6---------------------------|
E|-----------------4-4-4-41-1-11-1-------------------------------------------|

0:40 [Verse 2]
G|---------------------------------------------------------------------------|
D|-------------------------------------------------6-6-6-63-3-33-3-----------|
A|-4-4-4-46-6-66-6-----------------4-4-4-46-6-66-6---------------------------|
E|-----------------4-4-4-41-1-11-1-------------------------------------------|

G|---------------------------------------------------------------------------|
D|-------------------------------------------------6-6-6-63-3-33-3-----------|
A|-4-4-4-46-6-66-6-----------------4-4-4-46-6-66-6---------------------------|
E|-----------------4-4-4-41-1-11-1-------------------------------------------|

1:10 [CHORUS]
G|---------------------------------------------------------------------------|
D|---------------------------------------------------------------------------|
A|-4-4-4-4-------------------------4-4-4-4-----------------------------------|
E|--------0-0-00-0-4-4-4-41-1-11-1--------0-0-00-0-4-4-4-41-1-11-1-----------|

G|---------------------------------------------------------------------------|
D|-------------------------3-3-33-3------------------------------------------|
A|-4-4-4-46-6-66--------------------4-4-4-4----------------------------------|
E|---------------2-4-4-4-4-----------------0-0-00-0-4-4-4-41-1-11-1----------|

1:50 [Verse 3]
G|---------------------------------------------------------------------------|
D|-----------------------------------------------6-6-6-63-3-33-3-------------|
A|-4-4-4-46-6-66-6-----------------4-4-4-46-6-66-----------------------------|
E|-----------------4-4-4-41-1-11-1-------------------------------------------|


G|---------------------------------------------------------------------------|
D|-----------------6-6-6-63-3-33-3-------------------------------------------|
A|-4-4-4-46-6-66-6-----------------4-4-4-46-6-66-6---------------------------|
E|-------------------------------------------------4-4-4-41-1-11-1-----------|

2:19 [CHORUS 2]
G|---------------------------------------------------------------------------|
D|---------------------------------------------------------------------------|
A|-4-4-4-4-------------------------4-4-4-4-----------------------------------|
E|--------0-0-00-0-4-4-4-41-1-11-1--------0-0-00-0-4-4-4-41-1-11-1-----------|

G|---------------------------------------------------------------------------|
D|-------------------------3-3-33-3------------------------------------------|
A|-4-4-4-46-6-66--------------------4-4-4-4----------------------------------|
E|---------------2-4-4-4-4-----------------0-0-00-0-4-4-4-41-1-11-1----------|

3:00 [BRIDGE]
G|---------------------------------------------------------------------------|
D|---------------------------------------------------------------------------|
A|-4-4-4-4-------------------------4-4-4-4-----------------------------------|
E|--------0-0-00-0-4-4-4-41-1-11-1--------0-0-00-0-4-4-4-41-1-11-1-----------|

3:15 [CHORUS 3]
G|---------------------------------------------------------------------------|
D|---------------------------------------------------------------------------|
A|-4-4-4-4-------------------------4-4-4-4-----------------------------------|
E|--------0-0-00-0-4-4-4-41-1-11-1--------0-0-00-0-4-4-4-41-1-11-1-----------|

G|---------------------------------------------------------------------------|
D|---------------6-6-6-63-3-33-3---------------------------------------------|
A|-4-4-4-46-6-66-------------------------------------------------------------|
E|---------------------------------------------------------------------------|


if you want you can fill the gaps (preverses etc) with verse 1

===============================================================================

            
            
Suggest correction
Creating personal tab
Creating personal tab
You can edit any tab online and save it as your Personal.

You can edit, replace or remove any tab part or add personal notes – all changes will be seen only by you.

Personal tabs can be accessed anytime from any device, even offline.
Learn more »
comments
print report bad tab
5 comments total. Showing first comments.
0 reply
ctamb 139 Mar 23, 2013 12:50 PM

this was awesome

0 reply
jenslindberg2 10 Aug 24, 2013 05:53 AM

really awesome song and great work by you!

0 reply
RozzD 10 Oct 28, 2013 07:49 PM

Try replacing the 0's in the Chorus with a 6, It sounds a bit better. Nice tab!

guest
You may want to rate the tab now too:
select rating
Wanna post a correction for this tab? Suggest correction