Oops, an error
Loading. Please wait.
We have an official Yellow tab made by UG professional guitarists. Check out the tab »
×

Yellow bass

4,574 views 1 this week
no commentswrite comment
1 2 3 4 5
1 last vote to show rating
add to favorites
×
Save as Personal and add changes to this tab that will be seen only by you. Learn more ›
×
You can save this tab as Personal to edit and correct it or add notes. All changes will be seen only by you. Learn more »
launch autoscroll
font size
0
reset
guitar tuner
backing track
0:00
0:00
edit
Autoscroll
slow
fast
+/-
esc
set tempo
stop
Title: Yellow
Take from: Parachutes, 2000
Autor: Erickson 'Sony' Lagos

Intro:Guitar make F chord

      G---------------------------------------------------------------|
      D-2--------------------2----------------------------------------|
      A-----------2---------------------------------------------------|
      E---------------------------------------------------------------|

Pre verse:

      G---------------------------------------------------------------|
      D---------------2(x16)------------------------------------------|
      A-2(x16)---------------2(x16)-----------------------------------|
      E--------2(x16)-------------------------------------------------|

Verse: till chorus

      G-----------------9(x16)---------------9(x16)-------------------|
      D--/9(x16)---------------9(x16)---------------------------------|
      A-2--------9(x16)---------------9(x16)--------------------------|
      E---------------------------------------------------------------|


Pre chorus:

      G---------------------------------------------------------------|
      D---------2222--------------------------------------------------|
      A-22222222----2222----------------------------------------------|
      E---------------------------------------------------------------|

Chorus:

      G------/11------------------------------------------------------|
      D-66--6----6----------------------------------------------------| X3
      A------------7-99-----------------------------------------------|
      E---------------------------------------------------------------|


Pre verse

Verse

Pre chorus:

      G---------------------------------------------------------------|
      D------22222----------------------------------------------------|
      A-2222-------2222-----------------------------------------------|
      E---------------------------------------------------------------|


Chorus

Ending: as the preverse, up to 'Look at ... then:


      G---------------------------------------------------------------|
      D-----------------2*--------------------------------------------|
      A-2-------9-----------------------------------------------------|
      E---------------------------------------------------------------|


I'm sure you gonna like it 'cause I'm 100% sure it's right! Nevertheless, if you find 
minor corrections, please write me to Sony_bass_17@hotmail.com

            
            
Suggest correction
Creating personal tab
Creating personal tab
You can edit any tab online and save it as your Personal.

You can edit, replace or remove any tab part or add personal notes – all changes will be seen only by you.

Personal tabs can be accessed anytime from any device, even offline.
Learn more »
Give kudos to tab author, rate the tab!
1 2 3 4 5
comments
print report bad tab
guest
You may want to rate the tab now too:
select rating
Wanna post a correction for this tab? Suggest correction